No One Like You

Lagwagon

Tom: G
Tabbed by:
Email:

Intro:
Guitar1:
#1t1##1t2#e|--------------------------------------------------------------------------|
B|--------------------------------------------------------------------------|
G|--------------------------------------------------------------------------|
D|-66-22-44-66-22-44-66-22-44-2~-1~-----------------------------------------|
A|-66-22-44-66-22-44-66-22-44-2~-1~-----------------------------------------|
E|-44-00-22-44-00-22-44-00-22-0~-x~-----------------------------------------|#/1t2##/1t1#

#2t1#Guitar2:
#2t2#e|--------------------------------------------------------------------------|
B|--------------------------------------------------------------------------|
G|--------------------------------------------------------------------------|
D|-66-22-44-66-22-44-66-22-44-2~-1~-----------------------------------------|
A|-66-22-44-66-22-44-66-22-44-2~-1~-----------------------------------------|
E|-44-00-22-44-00-22-44-00-22-0~-x~-----------------------------------------|#/2t2##/2t1#

#3t1#Guitar1:
#3t2#e|--------------------------------------------------------------------------|
B|--------------------------------------------------------------------------|
G|--------------------------------------------------------------------------|
D|-66-22-44-66-22-44-66-22-44-2~-1~-----------------------------------------|
A|-66-22-44-66-22-44-66-22-44-2~-1~-----------------------------------------|
E|-44-00-22-44-00-22-44-00-22-0~-x~-----------------------------------------|#/3t2##/3t1#

#4t1#Guitar2:
#4t2#e|--------------------------------------------------------------------------|
B|--------------------------------------------------------------------------|
G|----------------------------6---------------------------------------------|
D|-6~-6-8-9-8-4-6-1-6-8-9-8-4---6-6-9-8-6-4-2~-1~---------------------------|
A|--------------------------------------------------------------------------|
E|--------------------------------------------------------------------------|#/4t2##/4t1#


Verse:
Guitar1:
     xxx xx xx xxx xx xx xxx xx xx
#5t1##5t2#e|--------------------------------------------------------------------------|
B|--------------------------------------------------------------------------|
G|--------------------------------------------------------------------------|
D|-6-666-22-44-666-22-44-666-22-44-2~-1~------------------------------------|
A|-6-666-22-44-666-22-44-666-22-44-2~-1~------------------------------------|
E|-4-444-00-22-444-00-22-444-00-22-0~-x~------------------------------------|#/5t2##/5t1#

Guitar2:
     xxx xx xx xxx xx xx xxx xx xx
#6t1##6t2#e|--------------------------------------------------------------------------|
B|--------------------------------------------------------------------------|
G|--------------------------------------------------------------------------|
D|-6-666-22-44-666-22-44-666-22-44------------------------------------------|
A|-6-666-22-44-666-22-44-666-22-44-2~-6-------6-4-2-1-----------------------|
E|-4-444-00-22-444-00-22-444-00-22------4-6-7-------------------------------|#/6t2##/6t1#

#7t1#Guitar1:
#7t2#e|--------------------------------------------------------------------------|
B|--------------------------------------------------------------------------|
G|--------------------------------------------------------------------------|
D|-666-222-8-9-666-222-8-9-666-222-8-9-9------------------------------------|
A|-666-222-8-9-666-222-8-9-666-222-8-9-9------------------------------------|
E|-444-000-6-7-444-000-6-7-444-000-6-7-7--11-9-7-6-2-2----------------------|#/7t2##/7t1#


#8t1#Guitar2:
#8t2#e|--------------------------------------------------------------------------|
B|--------------------------------------------------------------------------|
G|--------------------------------------------------------------------------|
D|-666-222-8-9-666-222-8-9-666-222-8-9-9~-----------------------------------|
A|-666-222-8-9-666-222-8-9-666-222-8-9-9~-----------------------------------|
E|-444-000-6-7-444-000-6-7-444-000-6-7-7~-----------------------------------|#/8t2##/8t1#

Chorus:
Guitar1:
#9t1##9t2#e|--------------------------------------------------------------------------|
B|--------------------------------------------------------------------------|
G|--------------------------------------------------------------------------|
D|-66-22-44-66-22-44-66-22-44-2~-1~-----------------------------------------|
A|-66-22-44-66-22-44-66-22-44-2~-1~-------6-4-2-1---------------------------|
E|-44-00-22-44-00-22-44-00-22-0~-x~-1-2-4-----------------------------------|#/9t2##/9t1#

#10t1#Guitar2:
#10t2#e|--------------------------------------------------------------------------|
B|--------------------------------------------------------------------------|
G|--------------------------------------------------------------------------|
D|-66-22-44-66-22-44-66-22-44-2~-1~-----------------------------------------|
A|-66-22-44-66-22-44-66-22-44-2~-1~-----------------------------------------|
E|-44-00-22-44-00-22-44-00-22-0~-x~-----------------------------------------|#/10t2##/10t1#

#11t1#Guitar1:
#11t2#e|--------------------------------------------------------------------------|
B|--------------------------------------------------------------------------|
G|--------------------------------------------------------------------------|
D|-66-22-44-66-22-44-66-22-44-2~-1~-----------------------------------------|
A|-66-22-44-66-22-44-66-22-44-2~-1~-----------------------------------------|
E|-44-00-22-44-00-22-44-00-22-0~-x~-----------------------------------------|#/11t2##/11t1#

#12t1#Guitar2:
#12t2#e|--------------------------------------------------------------------------|
B|--------------------------------------------------------------------------|
G|--------------------------------------------------------------------------|
D|-66-22-44-66-22-44-66-22-44-2~-1~-----------------------------------------|
A|-66-22-44-66-22-44-66-22-44-2~-1~-----------------------------------------|
E|-44-00-22-44-00-22-44-00-22-0~-x~-----------------------------------------|#/12t2##/12t1#

Verse2:
Guitar1:
     xxx xx xx xxx xx xx xxx xx xx
#13t1##13t2#e|--------------------------------------------------------------------------|
B|--------------------------------------------------------------------------|
G|--------------------------------------------------------------------------|
D|-6-666-22-44-666-22-----666-22-----2~-1~--------------------------------|
A|-6-666-22-44-666-22-1-2-666-22-1-2-2~-1~--------------------------------|
E|-4-444-00-22-444-00-----444-00-----0~-x~--------------------------------|#/13t2##/13t1#

Guitar2:
     xxx xx xx xxx xx xx xxx xx xx
#14t1##14t2#e|--------------------------------------------------------------------------|
B|--------------------------------------------------------------------------|
G|--------------------------------------------------------------------------|
D|-6-666-22-44-666-22-44--666-22--44----------------------------------------|
A|-6-666-22-44-666-22-44--666-22--44-2~-6-------6-4-2-1---------------------|
E|-4-444-00-22-444-00-22--444-00--22------4-6-7-----------------------------|#/14t2##/14t1#

#15t1#Guitar1:
#15t2#e|--------------------------------------------------------------------------|
B|--------------------------------------------------------------------------|
G|--------------------------------------------------------------------------|
D|-666-642-8-9-666-642-8-9-666-642-8-9-9------------------------------------|
A|-666-642-8-9-666-642-8-9-666-642-8-9-9------------------------------------|
E|-444-420-6-7-444-420-6-7-444-420-6-7-7--11-9-7-6-2-2----------------------|#/15t2##/15t1#


#16t1#Guitar2:
#16t2#e|--------------------------------------------------------------------------|
B|--------------------------------------------------------------------------|
G|--------------------------------------------------------------------------|
D|-666-642-8-9-666-642-8-9-666-642-8-9-9~-----------------------------------|
A|-666-642-8-9-666-642-8-9-666-642-8-9-9~-----------------------------------|
E|-444-420-6-7-444-420-6-7-444-420-6-7-7~-----------------------------------|#/16t2##/16t1#

Chorus:
Guitar1:
#17t1##17t2#e|--------------------------------------------------------------------------|
B|--------------------------------------------------------------------------|
G|--------------------------------------------------------------------------|
D|-66-22-44-66-22-44-66-22-44-2~-1~-----------------------------------------|
A|-66-22-44-66-22-44-66-22-44-2~-1~-------6-4-2-1---------------------------|
E|-44-00-22-44-00-22-44-00-22-0~-x~-1-2-4-----------------------------------|#/17t2##/17t1#

#18t1#Guitar2:
#18t2#e|--------------------------------------------------------------------------|
B|--------------------------------------------------------------------------|
G|--------------------------------------------------------------------------|
D|-66-22-44-66-22-44-66-22-44-2~-1~-----------------------------------------|
A|-66-22-44-66-22-44-66-22-44-2~-1~-----------------------------------------|
E|-44-00-22-44-00-22-44-00-22-0~-x~-----------------------------------------|#/18t2##/18t1#

#19t1#Guitar1:
#19t2#e|--------------------------------------------------------------------------|
B|--------------------------------------------------------------------------|
G|--------------------------------------------------------------------------|
D|-66-22-44-66-22-44-66-22-44-2~-1~-----------------------------------------|
A|-66-22-44-66-22-44-66-22-44-2~-1~-----------------------------------------|
E|-44-00-22-44-00-22-44-00-22-0~-x~-----------------------------------------|#/19t2##/19t1#

#20t1#Guitar2:
#20t2#e|--------------------------------------------------------------------------|
B|-9~-5~-7~-9~-5~-7~-9~-5~-7~-5~-4~-----------------------------------------|
G|--------------------------------------------------------------------------|
D|--------------------------------------------------------------------------|
A|--------------------------------------------------------------------------|
E|--------------------------------------------------------------------------|#/20t2##/20t1#

Outro:
Guitar1:
#21t1##21t2#e|--------------------------------------------------------------------------|
B|--------------------------------------------------------------------------|
G|--------------------------------------------------------------------------|
D|-66-22-44-66-22-44-66-22-44-2~-1~-----------------------------------------|
A|-66-22-44-66-22-44-66-22-44-2~-1~-----------------------------------------|
E|-44-00-22-44-00-22-44-00-22-0~-x~-----------------------------------------|#/21t2##/21t1#

| /  slide up
| \  slide down
| h  hammer-on
| p  pull-off
| ~  vibrato
| +  harmonic
Composição: Klaus Meine / Rudolf SchenkerColaboração e revisão: