Of Mind And Matters

Lagwagon

Tom: G
||--------------------||
||--------------------||
||--------------------||     Many times
||--6--6-6-6-6-6--6---||
||--6--6-6-6-6-6--6---||
||--4--4-4-4-4-4--4---||
       x x   x x

#1t1##1t2#|----------------------------------|----------------------------------|
|----------------------------------|----------------------------------|
|----------------------------------|----------------------------------|
|--6---6-6-6-6-6-6-6-6-6-6-6-6-6-6-|--9----11---9----8----9----8----6-|
|--6---6-6-6-6-6-6-6-6-6-6-6-6-6-6-|--9----11---9----8----9----8----6-|
|--4---4-4-4-4-4-4-4-4-4-4-4-4-4-4-|--7----9----7----6----7----6----4-|#/1t2##/1t1#
       x x x x x x x x x x x x x x |___________repeat 2 times_________|

#2t1##2t2#|----------------------------------|
|----------------------------------|
|----------------------------------|
|--6---6-6-6-6-6-6-6-6-6-6-6-6-6-6-|
|--6---6-6-6-6-6-6-6-6-6-6-6-6-6-6-|
|--4---4-4-4-4-4-4-4-4-4-4-4-4-4-4-|
       x x x x x x x x x x x x x x#/2t2##/2t1#

#3t1##3t2#|--------------------------------------------------------------------|
|--------------------------------------------------------------------|
|------------------------8-----8-------------------------------------|
|--------6-----6------------------------9-----9s11------11----11s13--|
|---------------------------------7--7-----7------9--9-----9---------|
|--4--4-----4------7--7-----7----------------------------------------|#/3t2##/3t1#

#4t1##4t2#|--------------------------------|------------------------------------|
|--------------------------------|------------------------------------|
|------------------------8-----8-|------------------------------------|
|--------6-----6-----------------|-------11----11--13--11--9--11--13--|
|--------------------------------|-9--9------9------------------------|
|--4--4-----4------7--7-----7----|------------------------------------|#/4t2##/4t1#
                                  |_________finish 1__________________|

#5t1##5t2#|------------------------|
|------------------------|
|------------------------|
|-9--9-9--9--8--8-8--8---|
|-9--9-9--9--8--8-8--8---|
|-7--7-7--7--6--6-6--6---|#/5t2##/5t1#
|_______finish 2_________|

VERS 1
this part is not 100% right. But hey!! the chords are there.
#6t1##6t2#|----------------------------------------------------------|
|----------------------------------------------------------|
|---------------4--4-4--4-------------------4--4-4--4------|
|--2--2-2--2-2--4--4-4--4------6--6-6--6-6--4--4-4--4------|
|--2--2-2--2-2--2--2-2--2-4p2--6--6-6--6-6--2--2-2--2-2h4--|
|--0--0-0--0-0-----------------4--4-4--4-4-----------------|#/6t2##/6t1#

#7t1##7t2#   -----------------------------------------------------|
   -----------------------------------------------------|
   ---------------4--4-4--------------------------------|
   --2--2-2--2-2--4--4-4---------4--4-4--4-4--4-4-------|
   --2--2-2--2-2--2--2-2--2-4-6--4--4-4--4-4--4-4-------|
   --0--0-0--0-0-----------------2--2-2--2-2--2-2-4h5h6-|#/7t2##/7t1#

#8t1##8t2#|-------------------------------------------------------|
|-------------------------------------------------------|
|-----------4-----------6-----------9-------------------|
|--------6-----------9---------9------------------------|
|-----6-----------9--------7-----------9-9-9-9-4-4-4-4--|
|--4-----------7-----------------------7-7-7-7-2-2-2-2--|
                                       x x x x x x x x#/8t2##/8t1#
#9t1##9t2#   -----------------------------------------|
   -----------------------------------------|
   ----------------4--4-4--4-4--------------|
   --6--6-6--6-6---4--4-4--4-4---6------4---|
   --6--6-6--6-6---2--2-2--2-2---6------4---|
   --4--4-4--4-4-----------------4------2---|#/9t2##/9t1#

#10t1# VERS 2
#10t2#|----------------------------------------------------------|
|----------------------------------------------------------|
|---------------4--4-4--4-------------------4--4-4--4------|
|--2--2-2--2-2--4--4-4--4------6--6-6--6-6--4--4-4--4------|
|--2--2-2--2-2--2--2-2--2-4p2--6--6-6--6-6--2--2-2--2-2h4--|
|--0--0-0--0-0-----------------4--4-4--4-4-----------------|#/10t2##/10t1#

#11t1##11t2#   -----------------------------------------------------|
   -----------------------------------------------------|
   ---------------4--4-4--4-----------------------------|
   --2--2-2--2-2--4--4-4--4------4--4-4--4-4--4-4-------|
   --2--2-2--2-2--2--2-2--2-4-6--4--4-4--4-4--4-4-------|
   --0--0-0--0-0-----------------2--2-2--2-2--2-2-4h5h6-|#/11t2##/11t1#

#12t1##12t2#|-------------------------------------------------------|
|-------------------------------------------------------|
|--4-----------4------------9---------------------------|
|--6-----------9------------9---------------------------|
|--6-----------9------------7----------9-9-9-9-4-4-4-4--|
|--4-----------7-----------------------7-7-7-7-2-2-2-2--|
                                       x x x x x x x x#/12t2##/12t1#
#13t1##13t2#   ----------------------------------|
   ----------------------------------|
   ----------------4--4-4--4-4-------|
   --6--6-6--6-6---4--4-4--4-4---4---|
   --6--6-6--6-6---2--2-2--2-2---4---|
   --4--4-4--4-4-----------------2---|#/13t2##/13t1#

#14t1##14t2#|----------------------------------------------|-------------------|
|----------------------------------------------|-------------------|
|--9--9-9--9-9-9-------------------------------|-------------------|
|--9--9-9--9-9-9--11-1111-111111--9--9---11-11-|-13--13-13-13------|
|--7--7-7--7-7-7--11-1111-111111--9--9---11-11-|-13--13-13-13------|
|-----------------9--9-9--9-9-9---7--7---9--9--|-11--11-11-11------|
                                               |1st 2nd&3rd ending|#/14t2##/14t1#

#15t1##15t2#|---------------|
|---------------|
|---------------|
|---6-----------|
|---6-----------|
|---4-----------|#/15t2##/15t1#
|__4th ending__|


#16t1##16t2#|------|--------------------------------------------------------|
|------|--------------------------------------------------------|
|------|--------------4--4-4-4-4-4--9--9-9-9-9-9--11-111111111--|
|------|6--6-6-6-6-6--4--4-4-4-4-4--9--9-9-9-9-9--11-111111111--|
|--2-4-|6--6-6-6-6-6--2--2-2-2-2-2--7--7-7-7-7-7--9--9-9-9-9-9--|
|------|4--4-4-4-4-4--------------------------------------------|
           x x x x x     x x x x x     x x x x x     x x x x x#/16t2##/16t1#

#17t1##17t2#|---------------------------------------------------------|
|---------------------------------------------------------|
|---------------4--4-4-4-4-4------------------------------|
|-6--6-6-6-6-6--4--4-4-4-4-4--4---------------------------|
|-6--6-6-6-6-6--2--2-2-2-2-2--4---------------------------|
|-4--4-4-4-4-4----------------2---------------------------|
     x x x x x     x x x x x#/17t2##/17t1#

#18t1#back to intro:
#18t2#|--------------------------------------------------------------------|
|--------------------------------------------------------------------|
|------------------------8-----8-------------------------------------|
|--------6-----6------------------------9-----9s11------11----11s13--|
|---------------------------------7--7-----7------9--9-----9---------|
|--4--4-----4------7--7-----7----------------------------------------|#/18t2##/18t1#

#19t1##19t2#|--------------------------------|------------------------------------|
|--------------------------------|------------------------------------|
|------------------------8-----8-|------------------------------------|
|--------6-----6-----------------|-------11----11--13--11--9--11--13--|
|--------------------------------|-9--9------9------------------------|
|--4--4-----4------7--7-----7----|------------------------------------|#/19t2##/19t1#
                                  |_________finish 1__________________|

#20t1##20t2#|-----------------------------------|
|-----------------------------------|
|-----------------------------------|
|-9--9-9--9--8--8-8--8--6-----------|
|-9--9-9--9--8--8-8--8--6-----------|
|-7--7-7--7--6--6-6--6--4-----------|#/20t2##/20t1#
|_______finish 2____________________|


#21t1##21t2#|------------------------------------|
|------------------------------------|
|------------------------------------|
|--9----11---9----8----9----8----6---|
|--9----11---9----8----9----8----6---|
|--7----9----7----6----7----6----4---|#/21t2##/21t1#
Composição: Antonio Buglione / Fat Mike / Gerald V. Casale / Ian McCulloch / Joey Cape / Lagwagon / Les Pattinson / Mark Mothersbaugh / Pete de Freitas / Will SergeantColaboração e revisão: