busca

One Thing To Live

Lagwagon

*
*
>Means strum

VERSE
G]-------------------------------------]
D]-------------------------------------]
A]----2>-4>-------2>-4>-------2>-4>-5>-]
E]-0>-------5>-0>-------5>-0>----------]

CHORUS
G]------------------------------------------------------------]
D]------------------------------------------------------------]
A]----2>-4>-7------------------------------5>-4>--------------]
E]-5>---------4>-5>-0-0-4>-5>-0-0-4>-5>-0>-------5>-0-0-4>-5>-]

BASS PART
G]-----------------------]
D]---9-------------------]
A]-7---7-9---9---11------]
E]---------7---9----9-5>-]

THEN THIS
G]-----------------------------------------]
D]-----------------------------------------]
A]---2-2-4-4-------2-2-4-4--------------2>-]
E]-0---------5-5-0---------2-2-4>-5>-2>----]

AND THIS
G]-----------------------------------------------------------]
D]---9---------------------9---------------------------------]
A]-7---7-9---9---11------7---7-9---9---11---12--7>-9>-11>-12-]
E]---------7---9----9-5----------7---9----9------------------]

CHORUS

ENDx2
G]-------------------]
D]-------------------]
A]-7-6-4-----------7-]
E]-------7-5-4-2-4---]





Clipes

Cifra Club Pro

Aproveite o Cifra Club com benefícios exclusivos e sem anúncios
Cifra Club Pro
Aproveite o Cifra Club com benefícios exclusivos e sem anúncios