Owen Meaney

Lagwagon

Tom: G
Tabbed by Ray Mac,RayM*.
  
The orders of the parts are at the end of each guitars section.
.  = Palm Muted
x  =    Mute String
/  =  Slide Up
\  = Slide Down

Guitar 1 
Fig. 1
#1t1##1t2#|------------------------------------------------------------------|
|------------------------------------------------------------------|
|-.-.-.-.-.-.*|
|-5-5-5-5-5-5-5--5-5-5-5-5-5-5--5-5-5-5-5-5-5--5-5-5-5-5-5-5-------|
|-5-5-5-5-5-5-5--5-5-5-5-5-5-5--5-5-5-5-5-5-5--5-5-5-5-5-5-5-------|
|-3-3-3-3-3-3-3--3-3-3-3-3-3-3--3-3-3-3-3-3-3--3-3-3-3-3-3-3-------|#/1t2##/1t1#

#2t1##2t2#|------------------------------------------------------------------|
|------------------------------------------------------------------|
|-.-.-.-.-.-.*|
|-7-7-7-7-7-7-7--7-7-7-7-7-7-7--7-7-7-7-7-7-7--7-7-7-7-7-7-7-------|
|-7-7-7-7-7-7-7--7-7-7-7-7-7-7--7-7-7-7-7-7-7--7-7-7-7-7-7-7-------|
|-5-5-5-5-5-5-5--5-5-5-5-5-5-5--5-5-5-5-5-5-5--5-5-5-5-5-5-5-------|#/2t2##/2t1#

#3t1#Fig. 2
#3t2#|------------------------------------------------------------------|
|------------------------------------------------------------------|
|-------7------7--------7------7--------7------7--------7------7---|
|------------------------------------------------------------------|
|-5-5-5---5-5-----5-5-5---5-5-----5-5-5---5-5-----5-5-5---5-5------|
|------------------------------------------------------------------|#/3t2##/3t1#

#4t1##4t2#|------------------------------------------------------------------|
|------------------------------------------------------------------|
|-------7------7--------7------7-------11-----11--------9-----9----|
|------------------------------------------------------------------|
|-5-5-5---5-5-----5-5-5---5-5-----9-9-9---9-9-----7-7-7---7-7------|
|------------------------------------------------------------------|#/4t2##/4t1#

#5t1#Fig. 3
#5t2#|------------------------------------------------------------------|
|------------------------------------------------------------------|
|-7-7-7--7-7-7--7-7-7--12--11-11--9-9-9--9-9-9--9-9-9--11-11--9----|
|-x-x-x--x-x-x--x-x-x---x---x--x--x-x-x--x-x-x--x-x-x---x--x--x----|
|-5-5-5--5-5-5--5-5-5--10---9--9--7-7-7--7-7-7--7-7-7---9--9--7----|
|------------------------------------------------------------------|#/5t2##/5t1#

#6t1#Fig. 4
#6t2#|-------------------------------------------------------------------|
|-------------------------------------------------------------------|
|-14--12-12-12--14--12-12-12--14---14--12-12-12--14--12-12-12--14---|
|--x---x--x--x---x---x--x--x---x----x---x--x--x---x---x--x--x---x---|
|-12--10-10-10--12--10-10-10--12---12--10-10-10--12--10-10-10--12---|
|-------------------------------------------------------------------|#/6t2##/6t1#

#7t1#Fig. 5
#7t2#|------------------------------------------|
|------------------------------------------|
|-14-14-14--14-14-14--12-12-12--11-11-11---|
|--x--x--x---x--x--x---x--x--x---x--x--x---|
|-12-12-12--12-12-12--10-10-10---9--9--9---|
|------------------------------------------|#/7t2##/7t1#

#8t1#Fig. 6
#8t2#|----------------------------------------------------------|
|----------------------------------------------------------|
|----------------------------------------------------------|
|-5-5-5--5-5-5--7-7-7--7-7-7--5-5-5--5-5-5--7-7-7--7-7-7---|
|-5-5-5--5-5-5--7-7-7--7-7-7--5-5-5--5-5-5--7-7-7--7-7-7---|
|-3-3-3--3-3-3--5-5-5--5-5-5--3-3-3--3-3-3--5-5-5--5-5-5---|#/8t2##/8t1#

#9t1#Fig. 7
#9t2#|------------------------------------------------------------|
|------------------------------------------------------------|
|-7-7-7--7-7-7-----------------------------------------------|
|-7-7-7--7-7-7--4-4-4--4-4-4--5-5-5--5-5-5--7-7-7--7-7-7-----|
|-5-5-5--5-5-5--4-4-4--4-4-4--5-5-5--5-5-5--7-7-7--7-7-7-----|
|---------------2-2-2--2-2-2--3-3-3--3-3-3--5-5-5--5-5-5-----|#/9t2##/9t1#

#10t1#Fig. 8
#10t2#|-----------------------------------------------|
|-----------------------------------------------|
|-----------------------------------------------|
|-9-------5---2----4-4-4--4-4-4--5-5-5--7-7-7---|
|-9-------5---2----4-4-4--4-4-4--5-5-5--7-7-7---|
|-7-------3---0----2-2-2--2-2-2--3-3-3--5-5-5---|#/10t2##/10t1#

#11t1#Fig. 9
#11t2#|------------------------------------------------------------------------|
|------------------------------------------------------------------------|
|-7-7-7-7-7-7-7---7-7-7-7-7-7-7---12-12-12-12-12-12-12---7-7-7-7-7-7-7---|
|-7-7-7-7-7-7-7---7-7-7-7-7-7-7----x--x--x--x--x--x--x---7-7-7-7-7-7-7---|
|-5-5-5-5-5-5-5---5-5-5-5-5-5-5---10-10-10-10-10-10-10---5-5-5-5-5-5-5---|
|------------------------------------------------------------------------|#/11t2##/11t1#

#12t1#Fig. 10
#12t2#|-------------------------------------|
|-------------------------------------|
|-7--9--11--12--9--11--9-9-9--9-9-9---|
|-x--x---x---x--x---x--x-x-x--x-x-x---|
|-5--7---9--10--7---9--7-7-7--7-7-7---|
|-------------------------------------|#/12t2##/12t1#

#13t1#Fig. 11
#13t2#|-----|
|-----|
|-7\--|
|-7\--|
|-5\--|
|-----|#/13t2##/13t1#

ORDER:
FIG. 1
FIG. 1
FIG. 2
FIG. 2
FIG. 3
FIG. 3
FIG. 4
FIG. 5
FIG. 4
FIG. 5
FIG. 6
FIG. 6
FIG. 7
FIG. 7
FIG. 7
FIG. 8
FIG. 9
FIG. 7
FIG. 7
FIG. 8
FIG. 4
FIG. 5
FIG. 4
FIG. 5
FIG. 3
FIG. 10
FIG. 4
FIG. 11
 
:: Ultimate Guitar Archive :: 
http://* 

Composição: Colaboração e revisão: