Razorburn

Lagwagon

Tom: G
#1t1#Intro
#1t2#e|-------------------|-----------|
B|-------------------|-----------|
G|-------------------|-----------|
D|-11-11-11-11-(X3)--|------8886-|
A|-9--9--9--9--------|-9-9--6664-|
E|-------------------|-7-7-------|#/1t2##/1t1#
#2t1#Intro variation
#2t2#e|-----------------------------|-----------|
B|-----------------------------|-----------|
G|-----------------------------|-----------|
D|----------------8-8-8-8-(X2)-|------8886-|
A|-10-10-10-11----8-8-8-8------|-9-9--6664-|
E|-8--8--8--9------------------|-7-7-------|#/2t2##/2t1#

Verse
(She broke up with me...)
#3t1##3t2#e|------------------------------------------|
B|------------------------------------------|
G|------------------------------------------|
D|-11-------11------11-------11----8--6-----|
A|-9---11---9---9---9---11---9--9--6--4-----|
E|-----9--------7-------9-------7-----------|#/3t2##/3t1#
#4t1#(Now all my friends are gonna...)
#4t2#e|-------------------------------------------|
B|-------------------------------------------|
G|-------------------------------------------|
D|-11-------11------11-------11----8--6------|
A|-9---11---9---9---9---11---9--9--6--4--4---|
E|-----9--------7-------9-------7--------2---|#/4t2##/4t1#

Chorus
(On the night she left me...)
#5t1##5t2#e|------------------|
B|------------------|
G|------------------|
D|------------------|
A|-4--6--9--10-(X2)-|
E|-2--4--7--9-------|#/5t2##/5t1#

#6t1#Intro
#6t2#e|-------------------|-----------|
B|-------------------|-----------|
G|-------------------|-----------|
D|-11-11-11-11-(X3)--|------8886-|
A|-9--9--9--9--------|-9-9--6664-|
E|-------------------|-7-7-------|#/6t2##/6t1#

#7t1#Intro variation
#7t2#e|-----------------------------|-----------|
B|-----------------------------|-----------|
G|-----------------------------|-----------|
D|----------------8-8-8-8-(X2)-|------8886-|
A|-10-10-10-11----8-8-8-8------|-9-9--6664-|
E|-8--8--8--9------------------|-7-7-------|#/7t2##/7t1#

Verse
(I\'ve heard it said she looks a lot...)
#8t1##8t2#e|------------------------------------------|
B|------------------------------------------|
G|------------------------------------------|
D|-11-------11------11-------11----8--6-----|
A|-9---11---9---9---9---11---9--9--6--4-----|
E|-----9--------7-------9-------7-----------|#/8t2##/8t1#

Verse
(It\'s over, she left me and she will...)
#9t1##9t2#e|--------------------------------------------------------|
B|--------------------------------------------------------|
G|--------------------------------------------------------|
D|-11-------11------11-------11----8--6-------------------|
A|-9---11---9---9---9---11---9--9--6--4--4>>>(let ring)---|
E|-----9--------7-------9-------7--------2>>>(let ring)---|#/9t2##/9t1#

Bridge
guitar 1                          guitar 2
#10t1##10t2#e|-----------------------|        e|-----------------|
B|-----------------------|        B|-----------------|
G|-----------------------|        G|-----------------|
D|-----------------------|        D|-----------------|
A|-11-15-16--13-16-15-11-|        A|-4--8-9--6-9-8-4-|
E|-9--13-14--11-14-13-9--|        E|-2--6-7--4-7-6-2-|#/10t2##/10t1#

Final verse
Verse
(Come all be faithful, joyful and triumphant...)
#11t1##11t2#e|------------------------------------------------------------------------------------|
B|------------------------------------------------------------------------------------|
G|------------------------------------------------------------------------------------|
D|-11-------11------11-------11------11------11---------------------11>>>(let ring)---|
A|-9---11---9---9---9---11---9---9---9---9---9---9-9-9-9-9-9-9/11---9->>>(let ring)---|
E|-----9--------7-------9--------7-------7-------7-7-7-7-7-7-7/9----------------------|#/11t2##/11t1#

#12t1#Ending solo
#12t2#e|-5-4-0--7-4-0--5-4-0------12|
B|----------------------------|
G|----------------------------|
D|----------------------------|
A|----------------------------|
E|----------------------------|#/12t2##/12t1#

There it is, I\'m not 100% sure of what I tabbed, but if you see mistakes, 
e-mail me please, thank you and rate it ! And I suggest you listen to 
the song to learn it better.

Here are the lyrics:

She broke up with me, two days later
I think she met her Don Juan in, Italy
She has a new man, I have a new mustache

Now all my friends are gonna call me mountain man
And everyone will think that I\'m a stupid drifter
To walk the earth alone, I\'ll never shave again

On the night she left me, facial hair grew miraculously
I dressed in black like Johnny Cash, and grew this beard of shame

I\'ve heard it said she looks a lot like, Sherilyn Fenn
And sometimes I\'m mistaken for, Billy Gibbons
I may appear wise, but I\'m an idiot

It\'s over, she left me, and she will soon forget me
She found out I was lame, I grew a beard of shame

Come all be faithful, joyful and triumphant
I am a new man, I have a beard of shame
Composição: Antonio Buglione / Fat Mike / Gerald V. Casale / Ian McCulloch / Joey Cape / Lagwagon / Les Pattinson / Mark Mothersbaugh / Pete de Freitas / Will SergeantColaboração e revisão: