Resolve

Lagwagon

Tom: G

tabbed by: shanE

email: *




//intro.

#1t1##1t2#E|---------------------------------------------|
B|---------------------------------------------|
G|-----------------------7-7-7-7-7--9-9-9-9-9--|
D|-7-7-7-7-7--4-4-4-4-4--7-7-7-7-7--9-9-9-9-9--|
A|-7-7-7-7-7--4-4-4-4-4--5-5-5-5-5--7-7-7-7-7--|
e|-5-5-5-5-5--2-2-2-2-2------------------------|#/1t2##/1t1#




#2t1##2t2#E|------------------------------------------------|
B|------------------------------------------------|
G|----------------------------------7-7-7--9-9-9--|
D|-7-7-7-7-7--4-4-4-4-4--2-2-2-2-2--7-7-7--9-9-9--|
A|-7-7-7-7-7--4-4-4-4-4--2-2-2-2-2--5-5-5--7-7-7--|
e|-5-5-5-5-5--2-2-2-2-2--0-0-0-0-0----------------|#/2t2##/2t1#


#3t1##3t2#E|----------------------------------------------|
B|----------------------------------------------|
G|-7-7-7-7-7------------------------------------|
D|-7-7-7-7-7--2-2-2-2-2--7-7-7-7-7--4-4-4-4-4---|
A|-5-5-5-5-5--2-2-2-2-2--7-7-7-7-7--4-4-4-4-4---|
e|------------0-0-0-0-0--5-5-5-5-5--2-2-2-2-2---|#/3t2##/3t1#


#4t1##4t2#E|------------------------5~---|
B|------------------------7~---|
G|--7-7-7-7-7--9-9-9-9-9--7~---|
D|--7-7-7-7-7--9-9-9-9-9--7~---|
A|--5-5-5-5-5--7-7-7-7-7--5~---|
e|-----------------------------|#/4t2##/4t1#


//prechorus.
distortion

#5t1##5t2#E|-------------------|
B|-------------------|
G|----9---7-7-7-7-7--|
D|-7--9---7-7-7-7-7--|
A|-7--7---5-5-5-5-5--|  x2
e|-5-----------------|#/5t2##/5t1#


#6t1##6t2#E|-------------------|
B|-------------------|
G|-------------------|
D|-7--5--3-3-3-3-3---|
A|-7--5--3-3-3-3-3---| 
e|-5--3--1-1-1-1-1---|#/6t2##/6t1#



//verse.


#7t1##7t2#E|---------------------------------------------|
B|---------------------------------------------|
G|-----------------------7-7-7-7-7--9-9-9-9-9--|
D|-7-7-7-7-7--4-4-4-4-4--7-7-7-7-7--9-9-9-9-9--|
A|-7-7-7-7-7--4-4-4-4-4--5-5-5-5-5--7-7-7-7-7--|
e|-5-5-5-5-5--2-2-2-2-2------------------------|#/7t2##/7t1#



#8t1##8t2#E|--------------------------------------------|
B|--------------------------------------------|
G|----------------------7----------9----------|
D|-7---------4----------7----------9----------| PICKSLIDE.
A|-7---------4----------5----------7----------|
e|-5---------2--------------------------------|#/8t2##/8t1#



#9t1##9t2#E|-------------------------------------------|
B|-------------------------------------------|
G|----------------------------------7-7-7-7--|
D|-7-7-7-7-7--4-4-4-4-4--2-2-2-2-2--7-7-7-7--|
A|-7-7-7-7-7--4-4-4-4-4--2-2-2-2-2--5-5-5-5--|
e|-5-5-5-5-5--2-2-2-2-2--0-0-0-0-0-----------|#/9t2##/9t1#


#10t1##10t2#E|-----------------------------------------------|
B|-----------------------------------------------|
G|---7-7-7-7-7--9-9-9-9-9------------------------|
D|---7-7-7-7-7--9-9-9-9-9--7-7-7-7-7--4-4-4-4-4--|
A|---5-5-5-5-5--7-7-7-7-7--7-7-7-7-7--4-4-4-4-4--|
e|-------------------------5-5-5-5-5--2-2-2-2-2--|#/10t2##/10t1#


#11t1##11t2#E|-----------------------------|
B|-----------------------------|
G|--7-7-7-7-7--9-9-9-9-9--7~---|
D|--7-7-7-7-7--9-9-9-9-9--7~---| PICKSLIDE.
A|--5-5-5-5-5--7-7-7-7-7--5~---|
e|-----------------------------|#/11t2##/11t1#

//prechorus.

#12t1##12t2#E|-------------------|
B|-------------------|
G|----9---7-7-7-7-7--|
D|-7--9---7-7-7-7-7--|
A|-7--7---5-5-5-5-5--| x2
e|-5-----------------|#/12t2##/12t1#


#13t1##13t2#E|-------------------|
B|-------------------|
G|-------------------|
D|-7--5--3-3-3-3-3---|
A|-7--5--3-3-3-3-3---|  
e|-5--3--1-1-1-1-1---|#/13t2##/13t1#

//ending.


#14t1##14t2#E|-------------------------------------------|
B|-------------------------------------------|
G|----------------------------------7-7-7-7--|
D|-7-7-7-7-7--4-4-4-4-4--2-2-2-2-2--7-7-7-7--|
A|-7-7-7-7-7--4-4-4-4-4--2-2-2-2-2--5-5-5-5--|
e|-5-5-5-5-5--2-2-2-2-2--0-0-0-0-0-----------|#/14t2##/14t1#

#15t1##15t2#E|---------------------------------------------|
B|---------------------------------------------|
G|-----------------------7-7-7-7-7--9-9-9-9-9--|
D|-7-7-7-7-7--4-4-4-4-4--7-7-7-7-7--9-9-9-9-9--|
A|-7-7-7-7-7--4-4-4-4-4--5-5-5-5-5--7-7-7-7-7--|
e|-5-5-5-5-5--2-2-2-2-2------------------------|#/15t2##/15t1#


#16t1##16t2#E|-----|
B|-----|
G|-7-7-|
D|-7-7-| ending chord.
A|-5-5-| 
e|-----|#/16t2##/16t1#

Composição: Colaboração e revisão: