busca

Resolve

Lagwagon

Tom: C
tabbed by: shanE

email: *




//intro.

E|---------------------------------------------|
B|---------------------------------------------|
G|-----------------------7-7-7-7-7--9-9-9-9-9--|
D|-7-7-7-7-7--4-4-4-4-4--7-7-7-7-7--9-9-9-9-9--|
A|-7-7-7-7-7--4-4-4-4-4--5-5-5-5-5--7-7-7-7-7--|
e|-5-5-5-5-5--2-2-2-2-2------------------------|

E|------------------------------------------------|
B|------------------------------------------------|
G|----------------------------------7-7-7--9-9-9--|
D|-7-7-7-7-7--4-4-4-4-4--2-2-2-2-2--7-7-7--9-9-9--|
A|-7-7-7-7-7--4-4-4-4-4--2-2-2-2-2--5-5-5--7-7-7--|
e|-5-5-5-5-5--2-2-2-2-2--0-0-0-0-0----------------|

E|----------------------------------------------|
B|----------------------------------------------|
G|-7-7-7-7-7------------------------------------|
D|-7-7-7-7-7--2-2-2-2-2--7-7-7-7-7--4-4-4-4-4---|
A|-5-5-5-5-5--2-2-2-2-2--7-7-7-7-7--4-4-4-4-4---|
e|------------0-0-0-0-0--5-5-5-5-5--2-2-2-2-2---|

E|------------------------5~---|
B|------------------------7~---|
G|--7-7-7-7-7--9-9-9-9-9--7~---|
D|--7-7-7-7-7--9-9-9-9-9--7~---|
A|--5-5-5-5-5--7-7-7-7-7--5~---|
e|-----------------------------|


//prechorus.
distortion

E|-------------------|
B|-------------------|
G|----9---7-7-7-7-7--|
D|-7--9---7-7-7-7-7--|
A|-7--7---5-5-5-5-5--|  x2
e|-5-----------------|

E|-------------------|
B|-------------------|
G|-------------------|
D|-7--5--3-3-3-3-3---|
A|-7--5--3-3-3-3-3---| 
e|-5--3--1-1-1-1-1---|



//verse.


E|---------------------------------------------|
B|---------------------------------------------|
G|-----------------------7-7-7-7-7--9-9-9-9-9--|
D|-7-7-7-7-7--4-4-4-4-4--7-7-7-7-7--9-9-9-9-9--|
A|-7-7-7-7-7--4-4-4-4-4--5-5-5-5-5--7-7-7-7-7--|
e|-5-5-5-5-5--2-2-2-2-2------------------------|

E|--------------------------------------------|
B|--------------------------------------------|
G|----------------------7----------9----------|
D|-7---------4----------7----------9----------| PICKSLIDE.
A|-7---------4----------5----------7----------|
e|-5---------2--------------------------------|

E|-------------------------------------------|
B|-------------------------------------------|
G|----------------------------------7-7-7-7--|
D|-7-7-7-7-7--4-4-4-4-4--2-2-2-2-2--7-7-7-7--|
A|-7-7-7-7-7--4-4-4-4-4--2-2-2-2-2--5-5-5-5--|
e|-5-5-5-5-5--2-2-2-2-2--0-0-0-0-0-----------|

E|-----------------------------------------------|
B|-----------------------------------------------|
G|---7-7-7-7-7--9-9-9-9-9------------------------|
D|---7-7-7-7-7--9-9-9-9-9--7-7-7-7-7--4-4-4-4-4--|
A|---5-5-5-5-5--7-7-7-7-7--7-7-7-7-7--4-4-4-4-4--|
e|-------------------------5-5-5-5-5--2-2-2-2-2--|

E|-----------------------------|
B|-----------------------------|
G|--7-7-7-7-7--9-9-9-9-9--7~---|
D|--7-7-7-7-7--9-9-9-9-9--7~---| PICKSLIDE.
A|--5-5-5-5-5--7-7-7-7-7--5~---|
e|-----------------------------|

//prechorus.

E|-------------------|
B|-------------------|
G|----9---7-7-7-7-7--|
D|-7--9---7-7-7-7-7--|
A|-7--7---5-5-5-5-5--| x2
e|-5-----------------|

E|-------------------|
B|-------------------|
G|-------------------|
D|-7--5--3-3-3-3-3---|
A|-7--5--3-3-3-3-3---|  
e|-5--3--1-1-1-1-1---|

//ending.


E|-------------------------------------------|
B|-------------------------------------------|
G|----------------------------------7-7-7-7--|
D|-7-7-7-7-7--4-4-4-4-4--2-2-2-2-2--7-7-7-7--|
A|-7-7-7-7-7--4-4-4-4-4--2-2-2-2-2--5-5-5-5--|
e|-5-5-5-5-5--2-2-2-2-2--0-0-0-0-0-----------|

E|---------------------------------------------|
B|---------------------------------------------|
G|-----------------------7-7-7-7-7--9-9-9-9-9--|
D|-7-7-7-7-7--4-4-4-4-4--7-7-7-7-7--9-9-9-9-9--|
A|-7-7-7-7-7--4-4-4-4-4--5-5-5-5-5--7-7-7-7-7--|
e|-5-5-5-5-5--2-2-2-2-2------------------------|

E|-----|
B|-----|
G|-7-7-|
D|-7-7-| ending chord.
A|-5-5-| 
e|-----|

Clipes

Cifra Club Pro

Aproveite o Cifra Club com benefícios exclusivos e sem anúncios
Cifra Club Pro
Aproveite o Cifra Club com benefícios exclusivos e sem anúncios