busca

Smile

Lagwagon

Tom: Bm
Intro:
    (2x)
E|--------|-----------------------------------------------------------------|
B|--------|-----------------------------------------------------------------|
G|--------|-----------------------------------------------------------------|
D|-8--/9--|-5-5-5-5-5-5-5-5-7-7-7-7-7-7-7-7-8-8-8-8-8-8-8-8-9-9-9-9-9-9-9-9-|
A|-8--/9--|-5-5-5-5-5-5-5-5-7-7-7-7-7-7-7-7-8-8-8-8-8-8-8-8-9-9-9-9-9-9-9-9-|
E|-6--/7--|-3-3-3-3-3-3-3-3-5-5-5-5-5-5-5-5-6-6-6-6-6-6-6-6-7-7-7-7-7-7-7-7-|

E|---------------------------------------------------------|
B|---------------------------------------------------------|
G|---------------------------------------------------------|
D|-5-5-5-5-5-5-5-5--8~~~~-8-8-8-8-8-8-8-8-9-9-9-9-9-9-9-9--|
A|-5-5-5-5-5-5-5-5--8~~~~-8-8-8-8-8-8-8-8-9-9-9-9-9-9-9-9--|
E|-3-3-3-3-3-3-3-3--6~~~~-6-6-6-6-6-6-6-6-7-7-7-7-7-7-7-7--|

E|---------------------------------|
B|---------------------------------|
G|---------------------------------|
D|-5-5-5-5-5-5-5-5-7-7-7-7-7-7-7-7-|
A|-5-5-5-5-5-5-5-5-7-7-7-7-7-7-7-7-|
E|-3-3-3-3-3-3-3-3-5-5-5-5-5-5-5-5-|

Verso:
E|--------------------------------------------------------------------------|
B|--------------------------------------------------------------------------|
G|-7-7-7-7-7-7-7-7-----------------------------------------------4-4-4------|
D|-7-7-7-7-7-7-7-7-7-7-7-7-7-7-7-7-7-9-9-9-9-9-9-9-9-9-4-4-4-4-4-4-4-4-4-4-4|
A|-5-5-5-5-5-5-5-5-7-7-7-7-7-7-7-7-7-9-9-9-9-9-9-9-9-9-4-4-4-4-4-2-2-2-4-4-4|
E|-----------------5-5-5-5-5-5-5-5-5-7-7-7-7-7-7-7-7-7-2-2-2-2-2-------2-2-2|

E|-------------------------------------------------------------------------|
B|-------------------------------------------------------------------------|
G|------------------9-7-7-7-7-7-7-7-7---------------------------6-6-6-6-6--|
D|-5-5-5-5-5-5-5-5--9-7-7-7-7-7-7-7-7----0-2-4--4-4-4-4-4-4-4-4------------|
A|------------------7-5-5-5-5-5-5-5-5--2--------4-4-4-4-4-4-4-4-4-4-4-4-4--|
E|-3-3-3-3-3-3-3-3------------------------------2-2-2-2-2-2-2-2------------|

E|------------------------------|
B|------------------------------|
G|-4-4-4---------7-7-7--9-10-11-|
D|-4-4-4--4-4-4--7-7-7----------|
A|-2-2-2--4-4-4--5-5-5--7--8--9-|
E|--------2-2-2-----------------|

Refrão:
E|-----------------------------------------------------------------|
B|-----------------------------------------------------------------|
G|-----------------------------------------------------------------|
D|-5-5-5-5-5-5-5-5-7-7-7-7-7-7-7-7-8-8-8-8-8-8-8-8-9-9-9-9-9-9-9-9-|
A|-5-5-5-5-5-5-5-5-7-7-7-7-7-7-7-7-8-8-8-8-8-8-8-8-9-9-9-9-9-9-9-9-|
E|-3-3-3-3-3-3-3-3-5-5-5-5-5-5-5-5-6-6-6-6-6-6-6-6-7-7-7-7-7-7-7-7-|

E|---------------------------------------------------------|
B|---------------------------------------------------------|
G|---------------------------------------------------------|
D|-5-5-5-5-5-5-5-5--8~~~~-8-8-8-8-8-8-8-8-9-9-9-9-9-9-9-7--|
A|-5-5-5-5-5-5-5-5--8~~~~-8-8-8-8-8-8-8-8-9-9-9-9-9-9-9-7--|
E|-3-3-3-3-3-3-3-3--6~~~~-6-6-6-6-6-6-6-6-7-7-7-7-7-7-7-5--|

E|---------------------------------|
B|---------------------------------|
G|------------------6-6-9-9-9------|
D|-5-5-5-5-5-5-5-5-----------------|
A|-5-5-5-5-5-5-5-5--4-4-7-7-7------|
E|-3-3-3-3-3-3-3-3-----------------|

Verso:
E|--------------------------------------------------------------------------|
B|--------------------------------------------------------------------------|
G|-7-7-7-7-7-7-7-7-----------------------------------------------4-4-4------|
D|-7-7-7-7-7-7-7-7-7-7-7-7-7-7-7-7-7-9-9-9-9-9-9-9-9-9-4-4-4-4-4-4-4-4-4-4-4|
A|-5-5-5-5-5-5-5-5-7-7-7-7-7-7-7-7-7-9-9-9-9-9-9-9-9-9-4-4-4-4-4-2-2-2-4-4-4|
E|-----------------5-5-5-5-5-5-5-5-5-7-7-7-7-7-7-7-7-7-2-2-2-2-2-------2-2-2|

E|-------------------------------------------------------------------------|
B|-------------------------------------------------------------------------|
G|------------------9-7-7-7-7-7-7-7-7---------------------------6-6-6-6-6--|
D|-5-5-5-5-5-5-5-5--9-7-7-7-7-7-7-7-7----0-2-4--4-4-4-4-4-4-4-4------------|
A|------------------7-5-5-5-5-5-5-5-5--2--------4-4-4-4-4-4-4-4-4-4-4-4-4--|
E|-3-3-3-3-3-3-3-3------------------------------2-2-2-2-2-2-2-2------------|

E|------------------------------|
B|------------------------------|
G|-4-4-4---------7-7-7--9-10-11-|
D|-4-4-4--4-4-4--7-7-7----------|
A|-2-2-2--4-4-4--5-5-5--7--8--9-|
E|--------2-2-2-----------------|

                                    (2x)
E|-----------------------------------------------------------------|
B|-----------------------------------------------------------------|
G|-----------------------------------------------------------------|
D|-5-5-5-5-5-5-5-5-7-7-7-7-7-7-7-7-8-8-8-8-8-8-8-8-9-9-9-9-9-9-9-9-|
A|-5-5-5-5-5-5-5-5-7-7-7-7-7-7-7-7-8-8-8-8-8-8-8-8-9-9-9-9-9-9-9-9-|
E|-3-3-3-3-3-3-3-3-5-5-5-5-5-5-5-5-6-6-6-6-6-6-6-6-7-7-7-7-7-7-7-7-|

Ponte:
(Guitarra 1)
E|-----------------------------------------------------------------|
B|-----------------------------------------------------------------|
G|-----------------------------------------------------------------|
D|-5-5-5-5-5-5-5-5--8-8-8-8-8-8--8-8-8-8-8-8-8-8-9-9-9-9-9-7-7-----|
A|-5-5-5-5-5-5-5-5--8-8-8-8-8-8--8-8-8-8-8-8-8-8-9-9-9-9-9-7-7-----|
E|-3-3-3-3-3-3-3-3--6-6-6-6-6-6--6-6-6-6-6-6-6-6-7-7-7-7-7-5-5-----|
                                                                 (3x)
E|-----------------------------------------------------------------|
B|-----------------------------------------------------------------|
G|-----------------------------------------------------------------|
D|-5-5-5-5-5-5-5-5-7-7-7-7-7-7-7-7-8-8-8-8-8-8-8-8-9-9-9-9-9-9-9-9-|
A|-5-5-5-5-5-5-5-5-7-7-7-7-7-7-7-7-8-8-8-8-8-8-8-8-9-9-9-9-9-9-9-9-|
E|-3-3-3-3-3-3-3-3-5-5-5-5-5-5-5-5-6-6-6-6-6-6-6-6-7-7-7-7-7-7-7-7-|

(Guitarra 2)
E|------------------------------------------------|
B|------------------------------------------------|
G|----7-6-6-7--3--7-6-6-7--3--7-6-6-7--4--7-9-9-7-|
D|-5----------------------------------------------|
A|----5-4-4-5--1--5-4-4-5--1--5-4-4-5--2--5-7-7-5-|
E|-3----------------------------------------------|
                                                (3x)
E|------------------------------------------------|
B|------------------------------------------------|
G|----7-6-6-7-----7-6-6-7--3--7-6-6-7--4--7-9-9-7-|
D|-5-----------7----------------------------------|
A|----5-4-4-5-----5-4-4-5--1--5-4-4-5--2--5-7-7-5-|
E|-3-----------5----------------------------------|

Clipes

Cifra Club Pro

Aproveite o Cifra Club com benefícios exclusivos e sem anúncios
7 dias grátis
Cifra Club Pro
Aproveite o Cifra Club com benefícios exclusivos e sem anúncios
7 dias grátis