Tom: G
Intro:
    (2x)
#1t1##1t2#E|--------|-----------------------------------------------------------------|
B|--------|-----------------------------------------------------------------|
G|--------|-----------------------------------------------------------------|
D|-8--/9--|-5-5-5-5-5-5-5-5-7-7-7-7-7-7-7-7-8-8-8-8-8-8-8-8-9-9-9-9-9-9-9-9-|
A|-8--/9--|-5-5-5-5-5-5-5-5-7-7-7-7-7-7-7-7-8-8-8-8-8-8-8-8-9-9-9-9-9-9-9-9-|
E|-6--/7--|-3-3-3-3-3-3-3-3-5-5-5-5-5-5-5-5-6-6-6-6-6-6-6-6-7-7-7-7-7-7-7-7-|#/1t2##/1t1#

#2t1##2t2#E|---------------------------------------------------------|
B|---------------------------------------------------------|
G|---------------------------------------------------------|
D|-5-5-5-5-5-5-5-5--8~~~~-8-8-8-8-8-8-8-8-9-9-9-9-9-9-9-9--|
A|-5-5-5-5-5-5-5-5--8~~~~-8-8-8-8-8-8-8-8-9-9-9-9-9-9-9-9--|
E|-3-3-3-3-3-3-3-3--6~~~~-6-6-6-6-6-6-6-6-7-7-7-7-7-7-7-7--|#/2t2##/2t1#

#3t1##3t2#E|---------------------------------|
B|---------------------------------|
G|---------------------------------|
D|-5-5-5-5-5-5-5-5-7-7-7-7-7-7-7-7-|
A|-5-5-5-5-5-5-5-5-7-7-7-7-7-7-7-7-|
E|-3-3-3-3-3-3-3-3-5-5-5-5-5-5-5-5-|#/3t2##/3t1#

#4t1#Verso:
#4t2#E|--------------------------------------------------------------------------|
B|--------------------------------------------------------------------------|
G|-7-7-7-7-7-7-7-7-----------------------------------------------4-4-4------|
D|-7-7-7-7-7-7-7-7-7-7-7-7-7-7-7-7-7-9-9-9-9-9-9-9-9-9-4-4-4-4-4-4-4-4-4-4-4|
A|-5-5-5-5-5-5-5-5-7-7-7-7-7-7-7-7-7-9-9-9-9-9-9-9-9-9-4-4-4-4-4-2-2-2-4-4-4|
E|-----------------5-5-5-5-5-5-5-5-5-7-7-7-7-7-7-7-7-7-2-2-2-2-2-------2-2-2|#/4t2##/4t1#

#5t1##5t2#E|-------------------------------------------------------------------------|
B|-------------------------------------------------------------------------|
G|------------------9-7-7-7-7-7-7-7-7---------------------------6-6-6-6-6--|
D|-5-5-5-5-5-5-5-5--9-7-7-7-7-7-7-7-7----0-2-4--4-4-4-4-4-4-4-4------------|
A|------------------7-5-5-5-5-5-5-5-5--2--------4-4-4-4-4-4-4-4-4-4-4-4-4--|
E|-3-3-3-3-3-3-3-3------------------------------2-2-2-2-2-2-2-2------------|#/5t2##/5t1#

#6t1##6t2#E|------------------------------|
B|------------------------------|
G|-4-4-4---------7-7-7--9-10-11-|
D|-4-4-4--4-4-4--7-7-7----------|
A|-2-2-2--4-4-4--5-5-5--7--8--9-|
E|--------2-2-2-----------------|#/6t2##/6t1#

#7t1#Refrão:
#7t2#E|-----------------------------------------------------------------|
B|-----------------------------------------------------------------|
G|-----------------------------------------------------------------|
D|-5-5-5-5-5-5-5-5-7-7-7-7-7-7-7-7-8-8-8-8-8-8-8-8-9-9-9-9-9-9-9-9-|
A|-5-5-5-5-5-5-5-5-7-7-7-7-7-7-7-7-8-8-8-8-8-8-8-8-9-9-9-9-9-9-9-9-|
E|-3-3-3-3-3-3-3-3-5-5-5-5-5-5-5-5-6-6-6-6-6-6-6-6-7-7-7-7-7-7-7-7-|#/7t2##/7t1#

#8t1##8t2#E|---------------------------------------------------------|
B|---------------------------------------------------------|
G|---------------------------------------------------------|
D|-5-5-5-5-5-5-5-5--8~~~~-8-8-8-8-8-8-8-8-9-9-9-9-9-9-9-7--|
A|-5-5-5-5-5-5-5-5--8~~~~-8-8-8-8-8-8-8-8-9-9-9-9-9-9-9-7--|
E|-3-3-3-3-3-3-3-3--6~~~~-6-6-6-6-6-6-6-6-7-7-7-7-7-7-7-5--|#/8t2##/8t1#

#9t1##9t2#E|---------------------------------|
B|---------------------------------|
G|------------------6-6-9-9-9------|
D|-5-5-5-5-5-5-5-5-----------------|
A|-5-5-5-5-5-5-5-5--4-4-7-7-7------|
E|-3-3-3-3-3-3-3-3-----------------|#/9t2##/9t1#

#10t1#Verso:
#10t2#E|--------------------------------------------------------------------------|
B|--------------------------------------------------------------------------|
G|-7-7-7-7-7-7-7-7-----------------------------------------------4-4-4------|
D|-7-7-7-7-7-7-7-7-7-7-7-7-7-7-7-7-7-9-9-9-9-9-9-9-9-9-4-4-4-4-4-4-4-4-4-4-4|
A|-5-5-5-5-5-5-5-5-7-7-7-7-7-7-7-7-7-9-9-9-9-9-9-9-9-9-4-4-4-4-4-2-2-2-4-4-4|
E|-----------------5-5-5-5-5-5-5-5-5-7-7-7-7-7-7-7-7-7-2-2-2-2-2-------2-2-2|#/10t2##/10t1#

#11t1##11t2#E|-------------------------------------------------------------------------|
B|-------------------------------------------------------------------------|
G|------------------9-7-7-7-7-7-7-7-7---------------------------6-6-6-6-6--|
D|-5-5-5-5-5-5-5-5--9-7-7-7-7-7-7-7-7----0-2-4--4-4-4-4-4-4-4-4------------|
A|------------------7-5-5-5-5-5-5-5-5--2--------4-4-4-4-4-4-4-4-4-4-4-4-4--|
E|-3-3-3-3-3-3-3-3------------------------------2-2-2-2-2-2-2-2------------|#/11t2##/11t1#

#12t1##12t2#E|------------------------------|
B|------------------------------|
G|-4-4-4---------7-7-7--9-10-11-|
D|-4-4-4--4-4-4--7-7-7----------|
A|-2-2-2--4-4-4--5-5-5--7--8--9-|
E|--------2-2-2-----------------|#/12t2##/12t1#

#13t1#                                    (2x)
#13t2#E|-----------------------------------------------------------------|
B|-----------------------------------------------------------------|
G|-----------------------------------------------------------------|
D|-5-5-5-5-5-5-5-5-7-7-7-7-7-7-7-7-8-8-8-8-8-8-8-8-9-9-9-9-9-9-9-9-|
A|-5-5-5-5-5-5-5-5-7-7-7-7-7-7-7-7-8-8-8-8-8-8-8-8-9-9-9-9-9-9-9-9-|
E|-3-3-3-3-3-3-3-3-5-5-5-5-5-5-5-5-6-6-6-6-6-6-6-6-7-7-7-7-7-7-7-7-|#/13t2##/13t1#

Ponte:
(Guitarra 1)
#14t1##14t2#E|-----------------------------------------------------------------|
B|-----------------------------------------------------------------|
G|-----------------------------------------------------------------|
D|-5-5-5-5-5-5-5-5--8-8-8-8-8-8--8-8-8-8-8-8-8-8-9-9-9-9-9-7-7-----|
A|-5-5-5-5-5-5-5-5--8-8-8-8-8-8--8-8-8-8-8-8-8-8-9-9-9-9-9-7-7-----|
E|-3-3-3-3-3-3-3-3--6-6-6-6-6-6--6-6-6-6-6-6-6-6-7-7-7-7-7-5-5-----|
                                                                 (3x)#/14t2##/14t1#
#15t1##15t2#E|-----------------------------------------------------------------|
B|-----------------------------------------------------------------|
G|-----------------------------------------------------------------|
D|-5-5-5-5-5-5-5-5-7-7-7-7-7-7-7-7-8-8-8-8-8-8-8-8-9-9-9-9-9-9-9-9-|
A|-5-5-5-5-5-5-5-5-7-7-7-7-7-7-7-7-8-8-8-8-8-8-8-8-9-9-9-9-9-9-9-9-|
E|-3-3-3-3-3-3-3-3-5-5-5-5-5-5-5-5-6-6-6-6-6-6-6-6-7-7-7-7-7-7-7-7-|#/15t2##/15t1#

#16t1#(Guitarra 2)
#16t2#E|------------------------------------------------|
B|------------------------------------------------|
G|----7-6-6-7--3--7-6-6-7--3--7-6-6-7--4--7-9-9-7-|
D|-5----------------------------------------------|
A|----5-4-4-5--1--5-4-4-5--1--5-4-4-5--2--5-7-7-5-|
E|-3----------------------------------------------|
                                                (3x)#/16t2##/16t1#
#17t1##17t2#E|------------------------------------------------|
B|------------------------------------------------|
G|----7-6-6-7-----7-6-6-7--3--7-6-6-7--4--7-9-9-7-|
D|-5-----------7----------------------------------|
A|----5-4-4-5-----5-4-4-5--1--5-4-4-5--2--5-7-7-5-|
E|-3-----------5----------------------------------|#/17t2##/17t1#
Composição: Colaboração e revisão: Jean Sapia