busca

Stockin The Neighbors

Lagwagon

 
*
Punk Bass tabs
*

>Means Strum

INTRO
G]---------]
D]---------]
A]-----2-3-]
E]-2-3-----]

VERSE
G]-------------------------------------------------------------------------
D]---------------------------5-4-------5-----------------------------------
A]-7-7-5-7-7-(x24)-----2-3-3-----7-5-5---7-5-7-7-5-7-7-5-7-7-5-7-7--0-1-0--
E]-----------------3-5-----------------------------------------------------

----------------------------------------12-13-14-16-13-]
---------0--2--3---------------12-13-14----------------]
-3-0--3-------------9-12-13-14-------------------------]
------------------3------------------------------------]

CHORUS
G]-----------------------------------------------------]
D]-----------------------------------------------------]
A]------0>-1-0-----3>-2>-3-2--------0>-1-0-----3>-2>-7-]
E]-0-3>--------3-0-----------3-0-3>--------3-0---------]

VERSE
CHORUS

DIALOG PART(lot's "o" times)
G]-------------------]
D]-------------------]
A]-------------------]
E]-3-0-0-0-3-3-0-0-0-]

AFTER THAT
G]---------------------------------]
D]---------------------------------]
A]-------0--2--3-----7-7-5-7-7-5-7-]
E]-0--3-----------3----------------]

VERSE
CHORUS





Clipes

Cifra Club Pro

Aproveite o Cifra Club com benefícios exclusivos e sem anúncios
Cifra Club Pro
Aproveite o Cifra Club com benefícios exclusivos e sem anúncios