busca

Até o Relógio Chora (part. Fernando Zor)

Lauana Prado

Tom: Db (forma dos acordes no tom de C) Capotraste na 1ª casa
[Intro] C  F7M
        C  F7M

E|-3---3---------------------3---3--------------------|
B|---1---1----5-3-5-3---1------1---1---5-3-5-3---1----|
G|----------------------------------------------------|
D|----------------------------------------------------|
A|----------------------------------------------------|
E|----------------------------------------------------|

[Primeira Parte]

C                          F7M
Olha só, isso não é brincadeira
          C                           F7M
Você não tem dó quando a gente briga faz besteira
          C                     F7M
Prefere sair e voltar na hora que quer
            C                          F7M
Me deixa aqui, esquece que eu sou sua mulher

[Pré-Refrão]

C                 F7M
Eu não entrei na sua vida feito um turista
C              F7M
Acreditei que nunca ia te perder de vista
 C                 F7M
Mas dói se você demora pra voltar

[Refrão]

             C                F7M
Quando você sai a nossa vida para
                  Am
Viro a noite acordada
                                    F7M
Dormir no seu peito é o que me faz ninar
                                   C
E o meu travesseiro não sabe respirar

             F7M
E se você demora
                Am
Até o relógio chora
   
Porque você não volta
               F7M         C
E ele tem que passar, a hora

[Solo] C  F7M
       C  F7M

E|-3---3---------------------3---3--------------------|
B|---1---1----5-3-5-3---1------1---1---5-3-5-3---1----|
G|----------------------------------------------------|
D|----------------------------------------------------|
A|----------------------------------------------------|
E|----------------------------------------------------|

[Pré-Refrão]

C                 F7M
Eu não entrei na sua vida feito um turista
C              F7M
Acreditei que nunca ia te perder de vista
 C                 F7M
Mas dói se você demora pra voltar

[Refrão]

             C                F7M
Quando você sai a nossa vida para
                  Am
Viro a noite acordada
                                    F7M
Dormir no seu peito é o que me faz ninar
                                   C
E o meu travesseiro não sabe respirar

             F7M
E se você demora
                Am
Até o relógio chora
   
Porque você não volta
               F7M         C
E ele tem que passar, a hora

             C                F7M
Quando você sai a nossa vida para
                  Am
Viro a noite acordada
                                    F7M
Dormir no seu peito é o que me faz ninar
                                   C
E o meu travesseiro não sabe respirar

             F7M
E se você demora
                Am
Até o relógio chora
   
Porque você não volta
               F7M         C
E ele tem que passar, a hora

[Final] C  F7M
        C  F7M

E|-3---3---------------------3---3--------------------|
B|---1---1----5-3-5-3---1------1---1---5-3-5-3---1----|
G|----------------------------------------------------|
D|----------------------------------------------------|
A|----------------------------------------------------|
E|----------------------------------------------------|

Clipes