busca

Deixa Olhar

Lauana Prado

Tom: F (forma dos acordes no tom de D) Capotraste na 3ª casa
[Intro] D9  F#m  G  Gm

E|------------------------------------------|
B|-------------3h5-3-3/5-------5-5-5-3-2-2h3|
G|------------------------------------------|
D|-0-0-0-0-0-0-----------4-4-4--------------|
A|------------------------------------------|
E|------------------------------------------|

E|------------------------------------------|
B|------------------------------------------|
G|-3p2-3p2---3p2-3p2------------------------|
D|---------5---------5-4~-------------------|
A|------------------------------------------|
E|------------------------------------------|

[Primeira Parte]

                D
Chega ser engraçado
                      A
Essa sua carinha de bravo
                        G
Calculando as minhas medidas
                           Gm
Até com o meu batom cê implica

[Pré-Refrão]

              F#m
Será que não sente
                                  Bm
Que esse ciúme não combina com a gente
                                    G 
Se alguém me olha, você fica aí grilado
        D9/F#        Em 
Pode ficar despreocupado 
                                  A
Que do meu gosto só você pode provar

[Refrão]

           D
Quando eu passo batom é pra você tirar
     F#m
E arrumo o cabelo pra você bagunçar
       Bm
Uso o meu melhor vestido

Só olhar não tem perigo
 Gm
Deixa, deixa olhar

           D
Quando eu passo batom é pra você tirar
     F#m
E arrumo o cabelo pra você bagunçar
       Bm
Uso o meu melhor vestido

Só olhar não tem perigo
 Gm           
Deixa, é só você que pode me tocar

[Solo] D  F#m  Bm  Gm

E|------------------------------------------|
B|-3-3--3-3-3-3-3-5-5h7--2-2----------------|
G|---------------------------2-2------------|
D|-------------------------------4-4--------|
A|------------------------------------------|
E|------------------------------------------|

E|------------------------------------------|
B|-2-2-2-2-3-3/5----------------------------|
G|------------------------------------------|
D|------------------------------------------|
A|------------------------------------------|
E|------------------------------------------|

[Pré-Refrão]

              F#m
Será que não sente
                                  Bm
Que esse ciúme não combina com a gente
                                    G 
Se alguém me olha, você fica aí grilado
        D9/F#        Em 
Pode ficar despreocupado 
                                  A
Que do meu gosto só você pode provar

[Refrão]

           D
Quando eu passo batom é pra você tirar
     F#m
E arrumo o cabelo pra você bagunçar
       Bm
Uso o meu melhor vestido

Só olhar não tem perigo
 Gm
Deixa, deixa olhar

           D
Quando eu passo batom é pra você tirar
     F#m
E arrumo o cabelo pra você bagunçar
       Bm
Uso o meu melhor vestido

Só olhar não tem perigo
 Gm                             D  A
Deixa, é só você que pode me tocar

           D
Quando eu passo batom é pra você tirar
     F#m
E arrumo o cabelo pra você bagunçar
       Bm
Uso o meu melhor vestido

Só olhar não tem perigo
 Gm
Deixa, deixa olhar

           D
Quando eu passo batom é pra você tirar
     F#m
E arrumo o cabelo pra você bagunçar
       Bm
Uso o meu melhor vestido

Só olhar não tem perigo
 Gm                              
Deixa, é só você que pode me tocar

[Solo] D  F#m  

E|------------------------------------------|
B|-3-3--3-3-3-3-3-5-5h7--2-2----------------|
G|---------------------------2-2------------|
D|-------------------------------4-4--------|
A|------------------------------------------|
E|------------------------------------------|

E|------------------------------------------|
B|-2-2-2-2-3-3/5----------------------------|
G|------------------------------------------|
D|------------------------------------------|
A|------------------------------------------|
E|------------------------------------------|

       Bm
Uso o meu melhor vestido

Só olhar não tem perigo
 Gm                           D
Deixa, é só você que pode me tocar

Clipes