Em Teus Braços

Laura Souguellis

Am
123
X02210
C7M
12
X32000
Em7
1234
022033
F7M
123
1XX210
G
1234
320033
G/B
1
X2000X
Tom: G
[Intro]

Parte 1

#1t1#   F7M
#1t2#E|---------0--------------------------------|
B|-----------------3-------1----------------|
G|-----2-------2-------2-------2------------|
D|---3---3---3---3---3---3---3---3----------|
A|------------------------------------------|
E|-1----------------------------------------|#/1t2##/1t1#

Parte 2

#2t1#   F7M
#2t2#E|---------0--------------------------------|
B|-----------------3-------1----------------|
G|-----2-------2-------2-------2------------|
D|---3---3---3---3---3---3---3---3----------|
A|------------------------------------------|
E|-1----------------------------------------|#/2t2##/2t1#

Parte 3

#3t1#   C7M
#3t2#E|------------------------------------------|
B|---------0--------------------------------|
G|-----0-----------0------------------------|
D|---2---2-----2-------2---2----------------|
A|-3---------3---3---3---3------------------|
E|------------------------------------------|#/3t2##/3t1#

Parte 4

#4t1#   C7M
#4t2#E|-----------------------------0------------|
B|---------0-------0---1---3----------------|
G|-----0------------------------------------|
D|---2---2-----2----------------------------|
A|-3---------3---3---3---3---3--------------|
E|------------------------------------------|#/4t2##/4t1#

[Primeira Parte]

( F7M  C7M )

F7M
    Segura estou nos braços
                         C7M
Daquele que nunca me deixou
F7M
    Seu amor perfeito sempre esteve
              C7M
Repousado em mim

[Pré-Refrão]

         G/B  Am
E se eu pas__sar pelo vale
            F7M           G
Acharei conforto em Teu amor
                Em7
Pois eu sei que és aquele
                   F7M    G
Que me guarda, me guardas

[Refrão]

               F7M
Em teus braços é meu descanso
               C7M
Em teus braços é meu descanso
               F7M
Em teus braços é meu descanso
               C7M
Em teus braços é meu descanso

[Primeira Parte]

F7M
    Segura estou nos braços
                         C7M
Daquele que nunca me deixou
F7M
    Seu amor perfeito sempre esteve
              C7M
Repousado em mim

[Pré-Refrão]

         G/B  Am
E se eu pas__sar pelo vale
            F7M           G
Acharei conforto em Teu amor
                Em7
Pois eu sei que és aquele
                   F7M    G
Que me guarda, me guardas

[Refrão]

               F7M
Em teus braços é meu descanso
               C7M
Em teus braços é meu descanso
               F7M
Em teus braços é meu descanso
               C7M
Em teus braços é meu descanso

               F7M
Em teus braços é meu descanso
               C7M
Em teus braços é meu descanso
               F7M
Em teus braços é meu descanso
               C7M
Em teus braços é meu descanso

[Segunda Parte]

F7M
    Recaio em Tua graça
C7M
    Recaio de novo em Tuas mãos
F7M
    Recaio em Tua graça
C7M
    Recaio de novo em Tuas mãos

F7M
    Recaio em Tua graça
C7M
    Recaio de novo em Tuas mãos
F7M
    Recaio em Tua graça
C7M
    Recaio de novo em Tuas mãos

[Pré-Refrão]

         G/B  Am
E se eu pas__sar pelo vale
            F7M           G
Acharei conforto em Teu amor
                Em7
Pois eu sei que és aquele
                   F7M    G
Que me guarda, me guardas

[Refrão]

               F7M
Em teus braços é meu descanso
               C7M
Em teus braços é meu descanso
               F7M
Em teus braços é meu descanso
               C7M
Em teus braços é meu descanso

               F7M
Em teus braços é meu descanso
               C7M
Em teus braços é meu descanso
               F7M
Em teus braços é meu descanso
               C7M
Em teus braços é meu descanso

[Final]

F7M
    O Toque mais puro

O amor mais seguro do mundo
C7M
    O Toque mais puro

O amor mais seguro do mundo
     F7M
É o Teu

O Toque mais puro

O amor mais seguro do mundo
C7M
    O Toque mais puro

O amor mais seguro do mundo
              F7M
É o Teu Jesus
Composição: Laura SouguellisColaboração e revisão: Leandro SandimPedro CarvalhaesWesley GasparEmanuel Dinize mais 17
Videoaula Em Teus Braços (aula de violão completa)