Am
123
X02210
Bb
234
X13331
Bb/C
1234
X3X331
Bb/D
1234
X5X366
C
123
X32010
C/E
123
032010
C7
1234
X3231X
Dm
123
XX0231
F
234
133211
F/C
234
X33211
G/B
123
X20033
Gm
34
355333
Tom: G
[Intro] F  Dm  Am  Bb/C  C7
        F  Dm  Am  Bb/C  C7

[Primeira Parte]

F           Bb/D   C/E   F
 Eu vejo a luz do teu olhar
          Bb    C   Dm
Como uma noite de luar
             Bb           Bb/C  C7
Luz que me guia aonde eu for
   F         Bb/D  C/E   F
Você, meu motivo pra sorrir
         Bb/D   C/E   Dm
Caminho certo pra seguir
          F/C
Saiba que é só teu
 G/B             Bb/C  C7
Meu verdadeiro amor

[Refrão]

    F             Dm
Eu juro, por mim mesmo
                    Am
Por Deus, por meus pais
         Bb/C  C7
Vou te amar
    F               Dm              Am
Eu juro, que esse amor não acaba jamais
         Bb  C
Vou te amar

   Gm              Bb/C     C7
É tanto querer, é tanta paixão
   Gm               Bb/C    C7
Te amo do fundo do meu coração
    F  
Eu juro

( F  Dm  Am  Bb/C  C7 )

[Segunda Parte]

F         Bb/D  C/E   F
 Um homem e   uma mulher
             Bb    C   Dm
Juntos pro que der e vier
        Bb             Bb/C  C7
A meia luz, a dois, a sós
   F      Bb/D  C/E    F
Então, a gente vai sonhar
         Bb/D C/E Dm
E conseguir realizar
              F/C
Um mundo de amor sem fim
     G/B              Bb/C  C7
Porque só depende de nós

[Refrão]

    F             Dm
Eu juro, por mim mesmo
                    Am
Por Deus, por meus pais
         Bb/C  C7
Vou te amar
    F               Dm              Am
Eu juro, que esse amor não acaba jamais
         Bb  C
Vou te amar

   Gm              Bb/C     C7
É tanto querer, é tanta paixão
   Gm               Bb/C    C7
Te amo do fundo do meu coração
   
Eu juro

[Solo] F  Dm  Am  Bb/C  C7

#1t1##1t2#E|------------------------------------------|
B|----13~-10-11-13p11-10-10b/8p6-5~---------|
G|----------------------------------5-7--5\-|
D|-10-----------------------------------7---|
A|------------------------------------------|
E|------------------------------------------|#/1t2##/1t1#

#2t1##2t2#E|---------------------13----13-15-17-18-21~|
B|-----------------/13----13----------------|
G|-----5-5h7-5~-10--------------------------|
D|-7-8----------10--------------------------|
A|------------------------------------------|
E|------------------------------------------|#/2t2##/2t1#

#3t1##3t2#E|-19-18-18b\16p14----15--------------------|
B|-----------------17----17p15--------------|
G|-----------------------------14-----------|
D|------------------------------------------|
A|------------------------------------------|
E|------------------------------------------|#/3t2##/3t1#

#4t1##4t2#E|------------------------------------------|
B|--13-/15-18--22-20~------------------------|
G|------------------------------------------|
D|------------------------------------------|
A|------------------------------------------|
E|------------------------------------------|#/4t2##/4t1#

[Refrão]

    F             Dm
Eu juro, por mim mesmo
                    Am
Por Deus, por meus pais
         Bb/C  C7
Vou te amar
    F               Dm              Am
Eu juro, que esse amor não acaba jamais
         Bb  C
Vou te amar

   Gm              Bb/C     C7
É tanto querer, é tanta paixão
   Gm               Bb/C    C7
Te amo do fundo do meu coração
    F  Dm  
Eu juro
    Bb  C7
Eu juro

[Final] F
Composição: Demian / Frank Meyers / Gary BakerColaboração e revisão: Gustavo VazVinicius BaioLucas KappaunAndre Pereirae mais 3