Todavia Me Alegrarei

Leandro Soares

Am7
12
X02010
C
123
X32010
C7M
12
X3200X
C9
34
X35533
D/F#
1234
2X0232
Em
12
022000
G
123
320003
G7M
1234
3X443X
Tom: G
[Intro] G  G7M  C7M

[Primeira Parte]

G                G7M
Eu tenho um Deus 
                 
Que não vai deixar 
      C7M
Essa luta me matar

Desespero me tomar

 G                      G7M
Por mais pressão que seja a situação
       C7M
O controle ainda esta 

Na palma de tuas mãos

G                G7M
Eu tenho um Deus 
                 
Que não vai deixar 
      C7M
Essa luta me matar

Desespero me tomar

 G                      G7M
Por mais pressão que seja a situação
       C7M
O controle ainda esta 

Na palma de tuas mãos

[Pré-Refrão]

    Em                  
O choro dura uma noite 
           C9                  G    
Mas a alegria ela vem pela manhã
               D/F#
Eu creio, eu creio

    Em                  
O choro dura uma noite 
           C9                  G    
Mas a alegria ela vem pela manhã
               D/F#
Eu creio, eu creio

[Refrão]

 C                         Am7    
Ainda que figueira não floresça 
                     Em
E não haja fruto na vide 
                   D/F#  G    
E o produto da oliveira minta 
                  C
Todavia me alegrarei
                  Am7
Todavia me alegrarei
                  Em  D/F#
Todavia me alegrarei

 C                         Am7    
Ainda que figueira não floresça 
                     Em
E não haja fruto na vide 
                   D/F#  G    
E o produto da oliveira minta 
                  C
Todavia me alegrarei
                  Am7
Todavia me alegrarei
                  Em  D/F#
Todavia me alegrarei

[Pré-Refrão]

    Em                  
O choro dura uma noite 
           C9                  G    
Mas a alegria ela vem pela manhã
               D/F#
Eu creio, eu creio

    Em                  
O choro dura uma noite 
           C9                  G    
Mas a alegria ela vem pela manhã
               D/F#
Eu creio, eu creio

[Refrão]

 C                         Am7    
Ainda que figueira não floresça 
                     Em
E não haja fruto na vide 
                   D/F#  G    
E o produto da oliveira minta 
                  C
Todavia me alegrarei
                  Am7
Todavia me alegrarei
                  Em  D/F#
Todavia me alegrarei

 C                         Am7    
Ainda que figueira não floresça 
                     Em
E não haja fruto na vide 
                   D/F#  G    
E o produto da oliveira minta 
                  C
Todavia me alegrarei
                  Am7
Todavia me alegrarei
                  Em  D/F#
Todavia me alegrarei

 C                         Am7    
Ainda que figueira não floresça 
                     Em
E não haja fruto na vide 
                   D/F#  G    
E o produto da oliveira minta 
                  C
Todavia me alegrarei
                  Am7
Todavia me alegrarei
                  Em  D/F#
Todavia me alegrarei

[Solo] C  Am7  Em  D/F# 
       C  Am7  Em  D/F# 

(Solo sem capotraste)

#1t1#Parte 1 de 7
#1t2#E|------9h11-11/13--13-13-13------9h11-11/13--13-13-13-|
B|-9h11----------------------9h11----------------------|
G|-----------------------------------------------------|
D|-----------------------------------------------------|
A|-----------------------------------------------------|
E|-----------------------------------------------------|#/1t2##/1t1#

#2t1#Parte 2 de 7
#2t2#E|------9h11-11-11-11-11-------------------------------|
B|-9h11------------------------------------------------|
G|-----------------------------------------------------|
D|-----------------------------------------------------|
A|-----------------------------------------------------|
E|-----------------------------------------------------|#/2t2##/2t1#

#3t1#Parte 3 de 7
#3t2#E|-11-13-9-11------------------------------------------|
B|------------9-11--9----------------------------------|
G|------------------8h10--8----------------------------|
D|------------------------8h10--6h8p6------------------|
A|-----------------------------------------------------|
E|-----------------------------------------------------|#/3t2##/3t1#

#4t1#Parte 4 de 7
#4t2#E|-11-13-9-11------------------------------------------|
B|------------9-11--9----------------------------------|
G|------------------8h10--8----------------------------|
D|------------------------8h10--6h8p6------------------|
A|-----------------------------------------------------|
E|-----------------------------------------------------|#/4t2##/4t1#

#5t1#Parte 5 de 7
#5t2#E|-----------------------------------------------------|
B|-----------------------------------------------------|
G|-3-3-3-3--6-6-6-6-6-6-6-6----------------------------|
D|-----------------------------------------------------|
A|-1-1-1-1--4-4-4-4-4-4-4-4----------------------------|
E|-----------------------------------------------------|#/5t2##/5t1#

#6t1#Parte 6 de 7
#6t2#E|-----------------------------------------------------|
B|-----------------------------------------------------|
G|-10-10-10-10-10-10-10-10-10-10-10-10-10-10-10-10-----|
D|-----------------------------------------------------|
A|-8--8--8--8--8--8--8--8--8--8--8--8--8--8--8--8------|
E|-----------------------------------------------------|#/6t2##/6t1#

#7t1#Parte 7 de 7
#7t2#E|-----------------------------------------------------|
B|-----------------------------------------------------|
G|-13-13-13-13-13-13-13-13-----------------------------|
D|-----------------------------------------------------|
A|-11-11-11-11-11-11-11-11-----------------------------|
E|-----------------------------------------------------|#/7t2##/7t1#

[Refrão]

 C                         Am7    
Ainda que figueira não floresça 
                     Em
E não haja fruto na vide 
                   D/F#  G    
E o produto da oliveira minta 
                  C
Todavia me alegrarei
                  Am7
Todavia me alegrarei
                  Em  D/F#
Todavia me alegrarei

 C                         Am7    
Ainda que figueira não floresça 
                     Em
E não haja fruto na vide 
                   D/F#  G    
E o produto da oliveira minta 
                  C
Todavia me alegrarei
                  Am7
Todavia me alegrarei
                  Em  D/F#
Todavia me alegrarei
Composição: Samuel MessiasColaboração e revisão: Thiago AlmeidaFabio SilvaGetúlio VasconcelosGuilherme Riose mais 2
Videoaula TODAVIA ME ALEGRAREI (aula de violão completa)