busca

Todavia Me Alegrarei

Leandro Soares

Tom: Db (forma dos acordes no tom de G) Capotraste na 6ª casa
[Intro] G  G7M  C7M

[Primira parte]

G
  Eu tenho um Deus 
G7M
    Que não vai deixar
      C7M
Essa luta me matar

O desespero me tomar

G                          G7M
  Por mais pressão que seja a situação
       C7M
O controle ainda está 

Na palma de Suas mãos

G
  Eu tenho um Deus 
G7M
    Que não vai deixar
      C7M
Essa luta me matar

O desespero me tomar

G                          G7M
  Por mais pressão que seja a situação
       C7M
O controle ainda está 

Na palma de Suas mãos

[Pré-refrão]

Em7
    O choro dura uma noite
           C7M                  G
Mas a alegria, ela vem pela manhã
                 D/F#
Eu creio, eu creio
Em7
    O choro dura uma noite
           C7M                  G
Mas a alegria, ela vem pela manhã
                 D/F#
Eu creio, eu creio

[Refrão]

 C7M                         Am7
Ainda que a figueira não floresça

                       Em
Que não haja fruto na vide
                   D/F#  G
E o produto da oliveira minta

                     C7M
Todavia eu me alegrarei
                     Am7
Todavia eu me alegrarei
                     Em   D/F#  
Todavia eu me alegrare____ei

 C7M                         Am7
Ainda que a figueira não floresça
                       Em
Que não haja fruto na vide
                   D/F#  G
E o produto da oliveira minta

                     C7M
Todavia eu me alegrarei
                     Am7
Todavia eu me alegrarei
                     Em   D/F#  
Todavia eu me alegrare____ei

[Pré-refrão]

Em7
    O choro dura uma noite
           C7M                  G
Mas a alegria, ela vem pela manhã
                 D/F#
Eu creio, eu creio
Em7
    O choro dura uma noite
           C7M                  G
Mas a alegria, ela vem pela manhã
                 D/F#
Eu creio, eu creio


[Refrão]

 C7M                         Am7
Ainda que a figueira não floresça
                       Em
Que não haja fruto na vide
                   D/F#  G
E o produto da oliveira minta

 (Pausa)             C7M
Todavia eu me alegrarei
                     Am7
Todavia eu me alegrarei
                     Em   D/F#  
Todavia eu me alegrare____ei

 C7M                         Am7
Ainda que a figueira não floresça
                       Em
Que não haja fruto na vide
                   D/F#  G
E o produto da oliveira minta

 (Pausa)             C7M
Todavia eu me alegrarei
                     Am7
Todavia eu me alegrarei
                     Em   D/F#  
Todavia eu me alegrare____ei

[Solo] Am7  C7M  Em  D/F#

[Tab - Solo]

(Solo sem capotraste)

Parte 1 de 7
E|------9h11-11/13--13-13-13------9h11-11/13--13-13-13-|
B|-9h11----------------------9h11----------------------|
G|-----------------------------------------------------|
D|-----------------------------------------------------|
A|-----------------------------------------------------|
E|-----------------------------------------------------|

Parte 2 de 7
E|------9h11-11-11-11-11-------------------------------|
B|-9h11------------------------------------------------|
G|-----------------------------------------------------|
D|-----------------------------------------------------|
A|-----------------------------------------------------|
E|-----------------------------------------------------|

Parte 3 de 7
E|-11-13-9-11------------------------------------------|
B|------------9-11--9----------------------------------|
G|------------------8h10--8----------------------------|
D|------------------------8h10--6h8p6------------------|
A|-----------------------------------------------------|
E|-----------------------------------------------------|

Parte 4 de 7
E|-11-13-9-11------------------------------------------|
B|------------9-11--9----------------------------------|
G|------------------8h10--8----------------------------|
D|------------------------8h10--6h8p6------------------|
A|-----------------------------------------------------|
E|-----------------------------------------------------|

Parte 5 de 7
E|-----------------------------------------------------|
B|-----------------------------------------------------|
G|-3-3-3-3--6-6-6-6-6-6-6-6----------------------------|
D|-----------------------------------------------------|
A|-1-1-1-1--4-4-4-4-4-4-4-4----------------------------|
E|-----------------------------------------------------|

Parte 6 de 7
E|-----------------------------------------------------|
B|-----------------------------------------------------|
G|-10-10-10-10-10-10-10-10-10-10-10-10-10-10-10-10-----|
D|-----------------------------------------------------|
A|-8--8--8--8--8--8--8--8--8--8--8--8--8--8--8--8------|
E|-----------------------------------------------------|

Parte 7 de 7
E|-----------------------------------------------------|
B|-----------------------------------------------------|
G|-13-13-13-13-13-13-13-13-----------------------------|
D|-----------------------------------------------------|
A|-11-11-11-11-11-11-11-11-----------------------------|
E|-----------------------------------------------------|

[Refão Final]
        
 C7M                         Am7
Ainda que a figueira não floresça
                       Em
Que não haja fruto na vide
                   D/F#  G
E o produto da oliveira minta

 (Pausa)             C7M
Todavia eu me alegrarei
                     Am7
Todavia eu me alegrarei
                     Em   D/F#  
Todavia eu me alegrare____ei

 C7M                         Am7
Ainda que a figueira não floresça
                       Em
Que não haja fruto na vide
                   D/F#  G
E o produto da oliveira minta

 (Pausa)             C7M
Todavia eu me alegrarei
                     Am7
Todavia eu me alegrarei
                     Em   D/F#  
Todavia eu me alegrare____ei

( C7M  Am7  Em  G )

                C7M
Eu me alegro a ti Senhor

Clipes

Cifra Club Pro

Aproveite o Cifra Club com benefícios exclusivos e sem anúncios
Cifra Club Pro
Aproveite o Cifra Club com benefícios exclusivos e sem anúncios