A Cruz e a Espada

Legião Urbana

A
123
X02220
Bm
234
X24432
C#m
234
X46654
D
123
XX0232
E
123
022100
F#m
34
244222
Tom: G
#1t1#Intro: D  C#m  Bm  E
#1t2#E|--10------10-----9------9-----7-----7----------7---9----|
B|-----10------------9------------7------------9----------|
G|-------11------------9-----------7----7p9-7-------------|
D|--12------12-----11-----11----9-----9------9---9---11---|
A|--------------------------------------------------------|
E|--------------------------------------------------------|#/1t2##/1t1#

#2t1##2t2#E|--10------10-----9------9-----7-----7----------7---9-----|
B|-----10------------9------------7------------9-----------|
G|-------11------------9-----------7----7p9-7--------------|
D|--12------12-----11-----11----9-----9------9---9---11----|
A|---------------------------------------------------------|
E|---------------------------------------------------------|#/2t2##/2t1#

D              C#m
Havia um tempo em que eu vivia
Bm            E        Bm   C#m
Um sentimento quase infantil
D              C#m
Havia o medo e a timidez
Bm                 E   Bm   C#m
Todo um lado que você nunca viu
Bm              F#m          D   E    F#m
Agora eu vejo, aquele beijo era mesmo o fim
Bm              F#m          D   E    F#m      A
Era o começo e o meu desejo se perdeu de mim

D               C#m            Bm
E agora eu ando correndo tanto
Bm                E    Bm  C#m
Procurando aquele novo lugar
D           C#m            Bm
Aquela festa o que me resta
Bm                  E      Bm C#m
Encontrar alguém legal pra ficar
Bm              F#m          D   E    F#m
Agora eu vejo, aquele beijo era mesmo o fim
Bm              F#m          D   E    F#m      A
Era o começo e o meu desejo se perdeu de mim

(intro)

Bm              F#m          D   E    F#m
Agora eu vejo, aquele beijo era mesmo o fim
Bm              F#m          D   E    F#m
Era o começo e o meu desejo se perdeu de mim

D              C#m            Bm
E agora é tarde e acordo tarde
Bm                         E   Bm   C#m
Do meu lado alguém que eu não conhecia

D             C#m       Bm
Outra criança adulterada
Bm                   E   Bm    C#m
Pelos anos que a pintura escondia

Bm              F#m          D   E    F#m
Agora eu vejo, aquele beijo era mesmo o fim
Bm              F#m          D   E    F#m     A
Era o começo e o meu desejo se perdeu de mim    (2x)
Composição: Luis SchiavonColaboração e revisão: Brendo AlmeidaLuiza Pereira