Am
123
X02210
Bm
234
X24432
C
123
X32010
C7
1234
X3231X
Cm
234
X35543
D
123
XX0232
E7
1234
022130
F
234
133211
G
123
320003
Tom: G
 Versão 1


Introdução - E7

E7
Não sei o que é direito
Só vejo preconceito
C
E a sua roupa nova
É só uma roupa nova
E7
Você não tem idéias
Pra acompanhar a moda
C
Tratando as meninas
Como se fossem lixo
E7
Ou então espécie rara
Só a você pertence
C
Ou então espécie rara
Que você não respeita
E7
Ou então espécie rara
Que é isso um objeto
C
Pra usar e jogar fora
Depois de ter prazer.
C7
Você é tão moderno
Am
Se acha tão moderno
Bm              Cm
Mas é igual a seus pais
G
É só questão de idade
F
Passando dessa fase
D
Tanto fez e tanto faz.
E7
Você com as suas drogas
E as suas teorias
C
E a sua rebeldia
E a sua solidão
E7
Vive com seus excessos
Mas não tem mais dinheiro
C
Pra comprar outra fuga
Sair de casa então
E7
Então é outra festa
É outra sexta-feira
C
Que se dane o futuro
Você tem a vida inteira
E7
Você é tão esperto
Você está tão certo
C
Ah você nunca dançou
Com ódio de verdade.
C7
Você é tão esperto
Am
Você está tão certo
Bm              Cm
Que você nunca vai errar
G
Mas a vida deixa marcas
F
Tenha cuidado
D               E7
Se um dia você dançar
C7
Nós somos tão modernos
Am
Só não somos sinceros
Bm                      Cm
Nos escondemos mais e mais
G
É só questão de idade
F
Passando dessa fase
D
Tanto fez e tanto faz
C7
Você é tão esperto
Am
Você está tão certo
Bm              Cm
Que você nunca vai errar
G
Mas a vida deixa marcas
F
Tenha cuidado
D
Se um dia você dançar.

#1t1# Versão 2 (baixo)
#1t2#-=======-#/1t2##/1t1#

#2t1#  (introdução) (E7)
#2t2#G|----------------------------------------------------------|
D|-----------------------------------------------------------|
A|--7-7-7/7------------7-7-7/7---------------------------|
E|-----------0-0-0-0-------------0-0-0-0-----------------|#/2t2##/2t1#

#3t1##3t2#G|-----------------------------------------------------------|
D|-----------------------------------------------------------|
A|-6/7-7-0-7-6/7-7-0-7-0-7-----------------------------|2x
E|-----------------------------------------------------------|#/3t2##/3t1#

#4t1#   Verso: durante as notas (E7, C).
#4t2#G|-----------------------------------------------------------|
D|-----------------------------------------------------------|
A|6/7-7-0-7-6/7-7-0-7-0-7-3-3-3-3-0-3-5-7----------|4X
E|-----------------------------------------------------------|#/4t2##/4t1#

#5t1#  ESTREBILHO (C7, Am, Bm, Cm,G,F, D).
#5t2#G|--------------------------------------------------------------------------------------------------------|
D|-------------------------------------------------------------------------7-5-7-5-5-----7-5-7-5-5---|
A|3-3-3-3-0-0-0-0-2-2-2-5-5-3-3---5-3-5-3-3-----3-1-3-1-1---5--------------5----------------|
E|-------------------------------------3--------------1--------------------------------------------------|#/5t2##/5t1#

#6t1#  Variação em (E7)
#6t2#G|----------------------------------------------------------|
D|----------------------------------------------------------|
A|6/7-7-0-7-6/7-0-7-0-7--------------------------------|2X
E|-----------------------------------------------------------|#/6t2##/6t1#
REPETE O VERSO E ESTREBILHO
REPETE A INTRODUÇÃO
SOLO:
#7t1##7t2#G|--------------------------------------------------------------------|
D|--------------------------------------------------------------------|
A|7-7-5-3-5-7-7-9/10-9-------------------------------------------| -
E|---------------------------------------------------------------------|#/7t2##/7t1#
REPETE O ESTREBILHO
INTERCULE
#8t1##8t2#G|----------------------------------------------------------------------|
D|----------------------------------------------------------------------|#/8t2##/8t1#
#9t1#A7/12-12-12\7-7---------------7/12-12/10\13/7------------------|
#9t2#E|-------------------0-0-0-0-0-0---------------------0-0-0-0-0-0---|#/9t2##/9t1#

#10t1##10t2#G|-------------------------------------------------------------|
D|-------------------------------------------------------------|
A|-------------------------------------------------------------|5X
E|-0-0-0-0-0-0-0-0-0-0-0----------0-0-0-0-0-0-0-0-0--|#/10t2##/10t1#
Composição: Dado Villa-Lobos / Marcelo Bonfá / Renato RussoColaboração e revisão: Kaio FercarAdson jesus