/ / / / / / / / / / / / / / / / / / / / / / / / / / / / / /
busca

As Flores do Mal

Legião Urbana

Tom: D
Introdução.: (A  Bm  G  A) - 2x

  [Riff de Introdução] - (Guitarra)
     A        Bm            G               A       
  E|-------------------------------------------------------|
  B|-2--0--2--3-------------------3---------------5--------|
  G|-----------------2---------4-----4---------6-----6-----|
  D|------------------------5-----------5---7-----------7--|
  A|-------------------------------------------------------|
  E|-------------------------------------------------------|

      A          Bm     G                    A
  E|----------------------------------------------------------|
  B|--5------------------------8----8---------------10--------|
  G|--------6--------------7-----------7---------9------9-----|
  D|-----7-----7/9------9-----------------9--11------------11-|
  A|----------------------------------------------------------|
  E|----------------------------------------------------------|

   [Riff 1] - (Guitarra)
     A               Bm7     G             A 
  E|-------------------------------------------5-------|
  B|----2-----2---------3----------3---3----------5----|
  G|-2------2------2/4----------4----------4/6-------6-|
  D|-------------------------5-------------------------|
  A|---------------------------------------------------|
  E|---------------------------------------------------|

     A          Bm7         G             A
  E|-5----------------5-----------7---7--------9------|
  B|----5----------5-----5----------------------------|
  G|-------6—-6/7-----------7--7----------7/9---------|
  D|--------------------------------------------------|
  A|--------------------------------------------------|
  E|--------------------------------------------------|

     A          Bm7           G          A
  E|-----------------------------------------5--------|
  B|----------------3---------------3-----------5-----|
  G|-------------------2---------4------4/6--------6--|
  D|----------------------4---5-----------------------|
  A|--------------------------------------------------|
  E|--------------------------------------------------|

     A        Bm7      G              A
  E|------------------------------------------------|
  B|-2--0—-2-/3-------------3---3----------5--------|
  G|--------------2------4------------4/6-----6-----|
  D|------------------5------------5-------------7--|
  A|------------------------------------------------|
  E|------------------------------------------------|

     A          Bm7        G              A
  E|------------------------------------------------------|
  B|--5--------------------------8---------------10----10-|
  G|--------6--------------7--------7---------9------9----|
  D|-----7-----7/9------9--------------9/10---------------|
  A|------------------------------------------------------|
  E|------------------------------------------------------|

                          [OVER DRIVER]
     A          Bm7        G              A
  E|----------------------------------------------------|
  B|-------5----------7---------------------------------|
  G|----6----------7------------------------------------|
  D|-7----------7----------5-5-5-5-5-5-5--7-7-7-7-7-7-7-|
  A|-----------------------5-5-5-5-5-5-5--7-7-7-7-7-7-7-|
  E|-----------------------3-3-3-3-3-3-3--5-5-5-5-5-5-5-|
                                             _
    A            Bm7                           
    Eu quis você                                                 
    G           A                              
    E me perdi                                  
              Bm7                              
    Você não viu                               
    G              A                           
    E eu não senti                              
          Bm7   G            A                      [Riff 1] - (Guitarra)
    Não acredito nem vou julgar                
             Bm7            G          A       
    Você sorriu, ficou e quis me provocar      
                 Bm7  G           A            
    Quis dar uma volta em todo o mundo         
                  Bm7  G               A       
    Mas não é bem assim que as coisas são      
             Bm7  G         A                  
    Seu interesse é só traição               __

    [Solo Refrão] - (Guitarra)
     A                 Bm7                 G          A
  E|-12---9---7--9-------12---9---7--9------9brbrbr------|
  B|----------------10-----------------10-------------9b-|
  G|-----------------------------------------------------|
  D|-----------------------------------------------------|
  A|-----------------------------------------------------|
  E|-----------------------------------------------------|

                     Bm7
    E mentir é fácil demais
        G                A
    Mentir é fácil demais  __
                    Bm7      
    Mentir é fácil demais       Junto com [Solo Refrão] - (Guitarra)
    G                A       
    Mentir é fácil demais  __

   A            Bm7    G                A
  E|-9---7--9---9b---------7—-8--7--------|2
  B|----------------10~~------------10----|v
  G|------------------------------------9-|e
  D|--------------------------------------|z
  A|--------------------------------------|e
  E|--------------------------------------|s
 
           Bm7   G          A
    Tua indecência não serve mais
            Bm7  G        A
    Tão decadente e tanto faz
                 Bm7    G        A
    Quais são as regras? O que ficou?
            Bm7   G        A
    O seu cinismo essa sedução
 
               Bm7
    Volta pro esgoto baby
    G                A
    Vê se alguém lhe quer
                             Bm7        G         A 
    O que ficou é esse modelito da estação passada
                       Bm7    
    Extorsão e drogas demais
              G              A
    Todos já sabem o que você faz
                                      Bm7
    Teu perfume barato, teus truques banais
              G              A       (A   Bm7   G   A)  (A   Bm7   G   A)
    Você acabou ficando pra trás
 

   [Solo Refrão 2] - (Guitarra)
   >>>>>>>>
     Bm7     G                     A                        Bm7       G               A
  E|-------|-12---9---7---9-------7------|-12---9---7---9-------7~/-|-12---9---7---9-------9~~-|
  B|-10~~--|------------------10-----10\-|------------------10------|-----------------10-------|
  G|-------|-----------------------------|--------------------------|--------------------------|
  D|-------|-----------------------------|--------------------------|--------------------------|
  A|-------|-----------------------------|--------------------------|--------------------------|
  E|-------|-----------------------------|--------------------------|--------------------------|

                           Bm7
    Porque mentir é fácil demais __
       G              A            
    Mentir é fácil demais          
                    Bm7              [Solo Refrão 2] - (Guitarra)
    Mentir é fácil demais           
       G              A            
    Mentir é fácil demais        __

    [Solo] - (Guitarra)
    A             Bm7    G                A
   E|-9---7--9---9b---------7—-8--7--------|2
   B|----------------10~~------------10----|v
   G|------------------------------------9-|e
   D|--------------------------------------|z
   A|--------------------------------------|e
   E|--------------------------------------|s

 A              Bm7 
    Volta pro esgoto baby
      G              A        (A   Bm7   G   A)          
    E vê se alguém te quer
  
      A             Bm7                     G            A 
  E|---------------17--------------------------------------------9--------|2
  B|-14---15--14----------14--15--14--------------12--------10------10----|v
  G|----------------------------------11------11--------11--------------9-|e
  D|---------------------------------------9------------------------------|z
  A|----------------------------------------------------------------------|e
  E|----------------------------------------------------------------------|s

   (A   Bm7   G   A)          
  E|--------------17-|
  B|-14—--15--14-----|   
  G|-----------------| Repete-se isso continuamente até o final da canção
  D|-----------------|               (Abaixando o volume)
  A|-----------------|
  E|-----------------|

Clipes