Come Share My Life

Legião Urbana

Tom: G
Transcrição para a guitarra (07/06/2002)


Intro

#1t1##1t2#E---------12--12---10------------------12----15----12-----------
B-----12----------------13---------12------------------13-------
G--11--------------------------11-------------------------------
D---------------------------------------------------------------
A---------------------------------------------------------------
E---------------------------------------------------------------#/1t2##/1t1#

#2t1##2t2#E--------12-----19----17-15-17-15-------------------------------
B-----12---------------------------17---13----------------------
G--11-----------------------------------------------------------
D---------------------------------------------------------------
A---------------------------------------------------------------
E---------------------------------------------------------------#/2t2##/2t1#

#3t1##3t2#E----------12---------12--------------------------------------
B--11/12--------15--------13----------------------------------
G-------------------------------------------------------------
D-------------------------------------------------------------
A-------------------------------------------------------------
E-------------------------------------------------------------#/3t2##/3t1#

Segunda parte

#4t1##4t2#E--------12---15---15----17----15---12------12-------------------
B-----12--------------------------------15------13---------------
G--11------------------------------------------------------------
D----------------------------------------------------------------
A----------------------------------------------------------------
E----------------------------------------------------------------#/4t2##/4t1#

#5t1##5t2#E---15--13--12-------------------------------------------------
B--------------15---13~~---------------------------------------
G--------------------------------------------------------------
D--------------------------------------------------------------
A--------------------------------------------------------------
E--------------------------------------------------------------#/5t2##/5t1#

#6t1##6t2#E-----12----15--15---15---15---12----------------------------------------------
B--12--------------------------------------------------------------------------
G-----------------------------------14----12~~---16---14---12---14---12--------
D------------------------------------------------------------------------------
A------------------------------------------------------------------------------
E------------------------------------------------------------------------------#/6t2##/6t1#

#7t1##7t2#E--------12--12---10---------------12---15---12---------------
B-----12---------------13-------12--------------13------------
G--11------------------------11-------------------------------
D-------------------------------------------------------------
A-------------------------------------------------------------
E-------------------------------------------------------------#/7t2##/7t1#

#8t1##8t2#E---------12---19----17--15--17-15-------------------------------
B------12---------------------------17--13----12/13--------------
G---11-----------------------------------------------------------
D----------------------------------------------------------------
A----------------------------------------------------------------
E----------------------------------------------------------------#/8t2##/8t1#

#9t1##9t2#E--12------12------------------------------------------------------
B------15------13--------------------------------------------------
G------------------------------------------------------------------
D------------------------------------------------------------------
A------------------------------------------------------------------
E------------------------------------------------------------------#/9t2##/9t1#

Terceira Parte

#10t1##10t2#E----------------------------------------------------------------------------
B----------13---15--13-------13-----13------------13--15------13-----13------
G-12---14-----------------14------14------12--14-----------14------14--------
D----------------------------------------------------------------------------
A----------------------------------------------------------------------------
E----------------------------------------------------------------------------#/10t2##/10t1#

#11t1##11t2#E---------------------------------------------------------------
B--------14---16---18-------16---18---19---17-------------------
G---16-----------------18----------------------18---------------
D---------------------------------------------------------------
A---------------------------------------------------------------
E---------------------------------------------------------------#/11t2##/11t1#

#12t1##12t2#E----------------------------------------------------------------
B---16----14---------14---12--------13--12-----------------------
G--------------16--------------14----------13---15---17----------
D----------------------------------------------------------------
A----------------------------------------------------------------
E----------------------------------------------------------------#/12t2##/12t1#

#13t1##13t2#E--------------------------------------------------------------
B--------------------------------------------------------------
G--------------------------------------------------------------
D--17---15---13---12----10-------------------------------------
A--------------------------------------------------------------
E--------------------------------------------------------------#/13t2##/13t1#

Final

#14t1##14t2#E-------12--12--10-------------12--15--12------------------------------
B----12------------13-------12------------13---------------------------
G-11---------------------11--------------------------------------------
D----------------------------------------------------------------------
A----------------------------------------------------------------------
E----------------------------------------------------------------------#/14t2##/14t1#

#15t1##15t2#E--------12--19-17-15--17-15-------------------12-----12--------
B-----12----------------------17--13----11/12-----15------------
G--11-----------------------------------------------------------
D---------------------------------------------------------------
A---------------------------------------------------------------
E---------------------------------------------------------------#/15t2##/15t1#

#16t1##16t2#E------------------------8----------------------------------------
B------------------------8----------------------------------------
G---14---12---10---9-----9----------------------------------------
D------------------------10---------------------------------------
A------------------------10---------------------------------------
E------------------------8----------------------------------------#/16t2##/16t1#




OBS: Utilize wah wah no fim da musica , dá um efeito muito bom, era isso.
Abraços

Morgan
Composição: Jörgen ElofssonColaboração e revisão: