Daniel Na Cova Dos Leões

Legião Urbana

A5
12
X022XX
Am
123
X02210
B5
134
X244XX
Bb
234
X13331
C
123
X32010
C5
134
X355XX
D5
134
X577XX
Dm
123
XX0231
E5
12
022XXX
F
234
133211
F#5
134
244XXX
F5
134
133XXX
G
123
320003
G#5
134
466XXX
G4
234
355533
G5
134
355XXX
Tom: G
Intro: Am  G

Riff 1 (intro):

#1t1#        Am         G           Am         G
#1t2#E|-5----------3-----3---|-5----------3-----10-----|
B|---5-3-5/3----3-3---3-|---5-3-5/3----3-3----8-7-|
G|----------------------|-------------------------|
D|----------------------|-------------------------|
A|----------------------|-------------------------|
E|----------------------|-------------------------|#/1t2##/1t1#
#2t1#        Am         G           Am         G
#2t2#E|-5----------3-----3---|-5----------3-----7----7-|
B|---5-3-5/3----3-3---3-|---5-3-5/3----3-3---8----|
G|----------------------|----------------------7--|
D|----------------------|-------------------------|
A|----------------------|-------------------------|
E|----------------------|-------------------------|#/2t2##/2t1#

(Junto com riff 1 - intro)

 Am       G      Am          G
  Aquele gosto amargo do teu corpo
 Am       G       Am         G
  Ficou na minha boca por mais tempo:
 Am          G        Am           G
  De amargo e então salgado ficou doce,
 Am       G          Am          G
  Assim que o teu cheiro forte e lento

Dm                  F               C
  Fez casa nos meus braços e ainda leve
            Bb           Dm       F
  E forte e cego e intenso fez saber
    C                 Bb
  Que ainda era muito e muito pouco

(Riff 1 - Intro)

(Junto com riff 1 - intro)
 Am     G           Am                 G
  Faço nosso o meu segredo mais sincero
 Am     G        Am         G
  E desafio o instinto dissonante.
 Am     G            Am              G
  A insegurança não me ataca quando erro
 Am        G
  E o teu momento passa a ser o meu instante.

Dm                     F
  E o teu medo de ter medo de ter medo
       C            Bb
  Não faz da minha força confusão:
       Dm                            F
  Teu corpo é meu espelho e em ti navego
            C                      Bb
  E sei que tua correnteza não tem direção.

Solo da guitarra:

#3t1##3t2#E|------|-13-12-13~/-|
B|------|-13-13-13~/-|
G|-2rp~-|-12-12-12~/-|
D|-2rp~-|------------|
A|------|------------|
E|------|------------|#/3t2##/3t1#

Dm                        F
  Mas, tão certo quanto o erro de ser barco
      C          Bb
  A motor e insistir em usar os remos,
      Dm                             F
  É o mal que a água faz quando se afoga
            C                          Bb
  E o salva-vidas não está  porque não vemos.

(Riff 1 - Intro)

#4t1#        Am         G           Am         G
#4t2#E|-5----------3-----3---|-5----------3-----10-----|
B|---5-3-5/3----3-3---3-|---5-3-5/3----3-3----8-7-|
G|----------------------|-------------------------|
D|----------------------|-------------------------|
A|----------------------|-------------------------|
E|----------------------|-------------------------|#/4t2##/4t1#
#5t1#        Am         G           Am         G
#5t2#E|-5----------3-----3---|-5----------3-----7----7-|
B|---5-3-5/3----3-3---3-|---5-3-5/3----3-3---8----|
G|----------------------|----------------------7--|
D|----------------------|-------------------------|
A|----------------------|-------------------------|
E|----------------------|-------------------------|#/5t2##/5t1#

Solo do violão:

Base: F  G4  G  G4 G  (2x)
      F  G4 G G4 G   F   G4  G  G4  G  (2x)
      F  G4 G G4 G  (2x)

#6t1##6t2#E|-5-5-5--8--7--8--7-|2 |-5-5-5--8-7-8-7--5-5-5--8--7--8--7-|2 |-5-5-5--8-7-8-7-|2
B|-6-6-6--8--8--8--8-|v |-6-6-6--8-8-8-8--6-6-6--8--8--8--8-|v |-6-6-6--8-8-8-8-|v
G|-5-5-5--7--7--7--7-|e |-5-5-5--7-7-7-7--5-5-5--7--7--7--7-|e |-5-5-5--7-7-7-7-|e
D|-------------------|z |-----------------------------------|z |----------------|z
A|-------------------|e |-----------------------------------|e |----------------|e
E|-------------------|s |-----------------------------------|s |----------------|s#/6t2##/6t1#

Solo do teclado:

Teclado 1: C
Teclado 2: C5  B5  A5  G#5  G5  F#5  F5  E5 D5

#7t1#       C           C5       B5      A5     G#5    G5     F#5    F5     E5     D5
#7t2#|----------||--------------------------------------------------------------|
|------8---||--------------------------------------------------------------|
|--------9-||------------------------------------------------------------7-|
|-10...----||-10-------9-------7------6------5------4------3------2------7-|
|----------||-10-------9-------7------6------5------4------3------2------5-|
|----------||-8--------7-------5------4------3------2------1------0--------|#/7t2##/7t1#
Composição: Renato RussoColaboração e revisão: Rafael CoraciniElson CalazansMatheus HenriqueDaniel Contarinie mais 1