Desemprego

Legião Urbana

Ab
234
431114
B
234
X24442
Db
234
X46664
Gb
234
244322
Tom: G
Intro.:  [Ponte]  - ( Db   Gb   Db    Gb )

[Ponte]

#1t1# [Guitarra]                  [Conta Baixo]
#1t2#E|-1---1-----1---2---1----| |------------------------|
B|--------2-------------2-| |------------------------|
G|------------------------| |------------------------|
D|------------------------| |-3---3-----3---4---3----|
A|------------------------| |--------4-------------4-|
E|------------------------| |------------------------|#/1t2##/1t1#

Db
   Não sei se tenho medo
Gb
   Não sei se tenho medo
Db
   Trabalho o tempo inteiro
Gb
   Estou procurando emprego
Db
   E é mais um aumento
Gb
   Não tenho mais dinheiro
Db
   Atraso o aluguel
Gb                           Ab   Gb   Db   B   Gb   Ab
   Mal compro alimento.
 
#2t1#  Db                         Gb                         Db
#2t2#E|----------------------1-----1-|------------------------|--------------1------|
B|-4-4-2-2--4-4-2-2--4--0--4--0-|-4-4-2-2--4--2--4-4-2-2-|-4-4-2-2---4--0--4-2-|
G|-1-1-1-1--1-1-1-1--1-----1----|-1-1-1-1--1--1--1-1-1-1-|-1-1-1-1---1-----1-1-|
D|------------------------------|------------------------|---------------------|
A|------------------------------|------------------------|---------------------|
E|------------------------------|------------------------|---------------------|#/2t2##/2t1#

#3t1#  Gb
#3t2#E|------------------------|
B|-4-4-2-2--4--2--4-4-2-2-|
G|-1-1-1-1--1--1--1-1-1-1-|
D|------------------------|
A|------------------------|
E|------------------------|#/3t2##/3t1#

Db
   Não sei se tenho medo
Gb
   Não sei se tenho medo
Db
   Só esse desespero
Gb
   Que esqueço quando bebo
Db
   Quem vai ser despedido?
Gb
   Quem vai dançar primeiro?
Db
   E o pouco que eu recebo
Gb                          Ab   Gb   Db   B   Gb   Ab
   É uma metade pelo meio.

#4t1#  Db                    Gb                         Db                  Gb
#4t2#      E|----------1-1-|-------------------1-1-|-------------------1-1-|-------------------1-|
      B|-4-4-2-2--0-0-|-4-4-2-2--4-4-2-2--0-0-|-4-4-2-2--4-4-2-2--0-0-|-4-4-2-2--4-4-2-2--2-|
      G|-1-1-1-1------|-1-1-1-1--1-1-1-1------|-1-1-1-1--1-1-1-1------|-1-1-1-1--1-1-1-1----|
      D|--------------|-----------------------|-----------------------|---------------------|
      A|--------------|-----------------------|-----------------------|---------------------|
      E|--------------|-----------------------|-----------------------|---------------------|#/4t2##/4t1#

Db
   Não sei se tenho medo
Gb
   Não sei se tenho medo
Db
   Só esse desespero
Gb
   Que esqueço quando bebo
Db
   E é mais um aumento
Gb
   Não tenho mais dinheiro
Db
   Atraso o aluguel
Gb                               Ab   Gb   Db   B   Gb   Ab   
   Mal compro o alimento. ohhh...

#5t1# [Conta Baixo]                   [Guitarra]
#5t2#E|------------------------|---| |-1---1-----1---2---1----|-4-|
B|------------------------|---| |--------2-------------2-|-6-|
G|------------------------|---| |------------------------|-6-|
D|-3---3-----3---4---3----|---| |------------------------|-6-|
A|--------4-------------4-|-4-| |------------------------|-4-|
E|------------------------|---| |------------------------|---|#/5t2##/5t1#

"Cifra de uma gravação antiga em 1984 na Radio Imprensa do Renato cantando uma de sua músicas quase esquecida".

Essa é só pra quem é um verdadeiro fã da Legião Urbana!!
Composição: Colaboração e revisão: João GouveiaRenan Santos