Eu Era Um Lobisomem Juvenil

Legião Urbana

A
123
X02220
B
234
X24442
C
123
X32010
D
123
XX0232
E
123
022100
E4
123
022200
G
123
320003
Tom: G
Pré Intro:

#1t1##1t2#E|--5---5-----7---7--8--7--5--5---5-----3---3---1---0----|
B|--3-----3---8---------------3-----3---1---------------3|
G|--2-------------------------2--------------------------|
D|-------------------------------------------------------|
A|-------------------------------------------------------|
E|-------------------------------------------------------|#/1t2##/1t1#

#2t1##2t2#E|---5---5------0-1--3--1-----5-7--7---8--10-8-------12-----13--13--15--13---|
B|---3-----3---5--------3------8------------10-------10---15----------15-----|
G|---2---------5---------2------------------9--------------------------------|
D|---------------------------------------------------------------------------|
A|---------------------------------------------------------------------------|
E|---------------------------------------------------------------------------|#/2t2##/2t1#

[Intro] E  D  E  D  E  B  E  D  A  B  E

    E                 D                 E

#3t1##3t2#E|------------------------------------------------------|
B|-5-----5--5-----5--3-----3--3-----3--5-----5--5-----5-|
G|-----4--------4--------2--------2--------4--------4---|
D|---2--------2--------0--------0--------2--------2-----|
A|------------------------------------------------------|
E|------------------------------------------------------|#/3t2##/3t1#


     D                 E                  B

#4t1##4t2#E|--------------------------------------------------------|
B|--3-----3--3-----3--5-----5--5-----5------7-----7-----7-|
G|------2--------2--------4--------4----------8-----8-----|
D|----0--------0--------2--------2-------9------9-----9---|
A|--------------------------------------------------------|
E|--------------------------------------------------------|#/4t2##/4t1#

    E                 D                A       B        E

#5t1##5t2#E|----------------------------------------------------------------------|
B|-5-----5--5-----5--3-----3--3-----3---5-------7------5-----5--5-----5-|
G|-----4--------4--------2--------2-------6-------8--------4--------4---|
D|---2--------2--------0--------0-----7-----7-9-----9----2--------2-----|
A|----------------------------------------------------------------------|
E|----------------------------------------------------------------------|#/5t2##/5t1#

[Primeira Parte]

    E                 D                 E                 B

#6t1##6t2#E|-----------------------------------------------------------------------|
B|-5-----5--5-----5--3-----3--3-----3--5-----5--5-----5----7-----7-----7-|
G|-----4--------4--------2--------2--------4--------4--------8-----8-----|
D|---2--------2--------0--------0--------2--------2------9-----9-----9---|
A|-----------------------------------------------------------------------|
E|-----------------------------------------------------------------------|#/6t2##/6t1#

    E                 D                A       B        E

#7t1##7t2#E|----------------------------------------------------------------------|
B|-5-----5--5-----5--3-----3--3-----3---5-------7------5-----5--5-----5-|
G|-----4--------4--------2--------2-------6-------8--------4--------4---|
D|---2--------2--------0--------0-----7-----7-9-----9----2--------2-----|
A|----------------------------------------------------------------------|
E|----------------------------------------------------------------------|#/7t2##/7t1#

 E     D      E     B
Luz e sentido e palavra, palavra
E        D      A B  E
É que o coração não pensa

A
Ontem faltou água, anteontem faltou luz
    G
Teve torcida gritando quando a luz voltou
     B                         E4   E
Não falo como você fala mas vejo bem o que você me diz
       A
Se o mundo é mesmo parecido com que vejo
         G
Prefiro acreditar no mundo do meu jeito
  B
E você estava esperando voar
      E4               E      G  A
Mas como chegar até às nuvens com os pés no chão

[Segunda Parte]

    E                 D                 E                 B

#8t1##8t2#E|-----------------------------------------------------------------------|
B|-5-----5--5-----5--3-----3--3-----3--5-----5--5-----5----7-----7-----7-|
G|-----4--------4--------2--------2--------4--------4--------8-----8-----|
D|---2--------2--------0--------0--------2--------2------9-----9-----9---|
A|-----------------------------------------------------------------------|
E|-----------------------------------------------------------------------|#/8t2##/8t1#

    E                 D                A       B        E

#9t1##9t2#E|----------------------------------------------------------------------|
B|-5-----5--5-----5--3-----3--3-----3---5-------7------5-----5--5-----5-|
G|-----4--------4--------2--------2-------6-------8--------4--------4---|
D|---2--------2--------0--------0-----7-----7-9-----9----2--------2-----|
A|----------------------------------------------------------------------|
E|----------------------------------------------------------------------|#/9t2##/9t1#
   
    E
O que sinto muitas vezes
     D
Faz sentido e outras vezes
    E
Não descubro um motivo
     B
Que me explique porque é
      E
Que não consigo ver sentido
    D
No que sinto, que procuro
     A          B
O que desejo e o que faz parte
    E
Do meu mundo

A          G           B         E4    E
O arco-íris  tem sete cores,  e fui juiz supremo
A          G        B                    E4 E  G   A
Vai, vem embora e volta, todos têm, todos têm suas próprias razões

[Terceira Parte]
    E                 D                 E                 B

#10t1##10t2#E|-----------------------------------------------------------------------|
B|-5-----5--5-----5--3-----3--3-----3--5-----5--5-----5----7-----7-----7-|
G|-----4--------4--------2--------2--------4--------4--------8-----8-----|
D|---2--------2--------0--------0--------2--------2------9-----9-----9---|
A|-----------------------------------------------------------------------|
E|-----------------------------------------------------------------------|#/10t2##/10t1#

    E                 D                A       B        E

#11t1##11t2#E|----------------------------------------------------------------------|
B|-5-----5--5-----5--3-----3--3-----3---5-------7------5-----5--5-----5-|
G|-----4--------4--------2--------2-------6-------8--------4--------4---|
D|---2--------2--------0--------0-----7-----7-9-----9----2--------2-----|
A|----------------------------------------------------------------------|
E|----------------------------------------------------------------------|#/11t2##/11t1#

 E              D
Qual foi a semente que você plantou?
     E
Tudo acontece ao mesmo tempo
   B
Nem eu mesmo sei direito
     E
O que está acontecendo
  D
E daí, de hoje em diante
   A     B       E
Todo dia vai ser o dia mais importante

[Solo] C  A  E  G  A  E 
       C  A  E  G  A  E

           C     A   E            G     A    E

#12t1##12t2#E|---------------------------9-10-12---9-10---|
B|-7-8-10--8-7-8-7--------------------------12|
G|-----------------9--9----9------------------|
D|--------------------------------------------|
A|--------------------------------------------|
E|--------------------------------------------|#/12t2##/12t1#

C      A    E
Se você quiser alguém prá ser só seu
 G         A    E
É só não se esquecer, estarei aqui

[Quarta Parte]

    E                 D                 E                 B

#13t1##13t2#E|-----------------------------------------------------------------------|
B|-5-----5--5-----5--3-----3--3-----3--5-----5--5-----5----7-----7-----7-|
G|-----4--------4--------2--------2--------4--------4--------8-----8-----|
D|---2--------2--------0--------0--------2--------2------9-----9-----9---|
A|-----------------------------------------------------------------------|
E|-----------------------------------------------------------------------|#/13t2##/13t1#

    E                 D                A       B        E

#14t1##14t2#E|----------------------------------------------------------------------|
B|-5-----5--5-----5--3-----3--3-----3---5-------7------5-----5--5-----5-|
G|-----4--------4--------2--------2-------6-------8--------4--------4---|
D|---2--------2--------0--------0-----7-----7-9-----9----2--------2-----|
A|----------------------------------------------------------------------|
E|----------------------------------------------------------------------|#/14t2##/14t1#

     E
Não digo nada
         D
Espero o vendaval passar
     E
Por enquanto eu não sei
     B
O que você me falou
    E
Me fez rir e pensar
        D
Porque estou tão preocupado
    A
Por estar
    B      E
Tão preocupado assim
 
[Quinta Parte]
  
    E                 D                 E                 B

#15t1##15t2#E|-----------------------------------------------------------------------|
B|-5-----5--5-----5--3-----3--3-----3--5-----5--5-----5----7-----7-----7-|
G|-----4--------4--------2--------2--------4--------4--------8-----8-----|
D|---2--------2--------0--------0--------2--------2------9-----9-----9---|
A|-----------------------------------------------------------------------|
E|-----------------------------------------------------------------------|#/15t2##/15t1#

    E                 D                A       B        E

#16t1##16t2#E|----------------------------------------------------------------------|
B|-5-----5--5-----5--3-----3--3-----3---5-------7------5-----5--5-----5-|
G|-----4--------4--------2--------2-------6-------8--------4--------4---|
D|---2--------2--------0--------0-----7-----7-9-----9----2--------2-----|
A|----------------------------------------------------------------------|
E|----------------------------------------------------------------------|#/16t2##/16t1#

 E
Mesmo se eu cantasse
 D
Todas as canções
 E
Todas as canções
 B
Todas as canções
 E           D
Todas as canções do mundo
  A     B    E
Sou bicho do mato mas

C      A    E
Se você quiser alguém prá ser só seu
 G         A    E
É só não se esquecer, estarei aqui
C      A    E
Se você quiser alguém prá ser só seu
 G         A    E
É só não se esquecer, estarei aqui

[Solo] C  A  E  G  A  E
       C  A  E  G  A  E

G A  E   C A  E    G  A E   C  A E      G  A E
Ou  então não terás jama..is a chave  do  meu  co..ração

[Solo] C  A  E  G  A  E

           C     A   E            G     A    E

#17t1##17t2#E|---------------------------9-10-12---9-10---|
B|-7-8-10--8-7-8-7--------------------------12|
G|-----------------9--9----9------------------|
D|--------------------------------------------|
A|--------------------------------------------|
E|--------------------------------------------|#/17t2##/17t1#

[Solo Final] C  A  E  G  A  E


#18t1##18t2#E|-3--1--0----------5------7--7--8--7--3--5-------10---8--7--5--7--5-|
B|-1--------3--3-------3---8-----------5-----3-----8---------------3-|
G|-------------2-----------------------------------------------------|
D|-------------------------------------------------------------------|
A|-------------------------------------------------------------------|
E|-------------------------------------------------------------------|#/18t2##/18t1#

#19t1##19t2#E|-5-----7--7--8--12--5---5-----0--0--1--3--1----|
B|----3--8------------3------3--1--------------3-|
G|---------------------------------------------2-|
D|-----------------------------------------------|
A|-----------------------------------------------|
E|-----------------------------------------------|#/19t2##/19t1#
Composição: Dado Villa-Lobos / Marcelo Bonfá / Renato RussoColaboração e revisão: edu gomesLucas KappaunAlex Silvae mais 10