A
123
X02220
A7
12
X02020
Am
123
X02210
Bm
234
X24432
C
123
X32010
D
123
XX0232
D/F#
1234
2X0232
Em
12
022000
F#m
34
244222
G
123
320003
Tom: G
[Intro teclado]

#1t1##1t2#E|----------------------------------------------|
B|---7---10---9---7---3---5---2-----9---14------|
G|----------------------------------------------| (esse arranjo acompanha a
D|----------------------------------------------| introdução da guitarra)
A|----------------------------------------------|
E|----------------------------------------------|#/1t2##/1t1#

[Intro Guitarra]

#2t1##2t2#E|----------------------------------------------|
B|--------------------10------------------------|
G|--------------------10------------------------| (repete isso várias vezes
D|--------------------10------------------------| até começar a música)
A|------------------------------------------x---|
E|-10-10-10-10-8--10-----10-10-10-10-13-10--x---|#/2t2##/2t1#

 (D G D G)

#3t1#Riff 1 (Faça esse riff no lugar do acorde 'D')
        D
#3t2#E|------5--------5-----5------|
B|----7-----7------7-----7----|
G|-7------7----7-----7-----7--|
D|----------------------------|
A|----------------------------|
E|----------------------------|#/3t2##/3t1#

Riff 1
 D      G           D    G             D
 Nosso dia vai chegar, teremos nossa vez
     G          D       G
 Não é pedir demais quero justiça

 C           Bm
 Quero trabalhar em paz
 Am           G
 Não é muito o que lhe peço
 D           C
 Eu quero trabalho honesto
    Em             A7
 Em vez de escravidão

Riff 1
 D       G         D       G
 Deve haver algum lugar onde o mais forte
 D      G            D         G
 Não consegue escravizar quem não tem chance


D      A       F#m   A
 De onde vem a indiferença
 G    D/F#   Em      A
 Temperada a ferro e fogo?
D A    F#m       A       G  D/F#      Em A
  Quem guarda os portões da fábrica?

   D       G        D     G
 O céu já foi azul, mas agora é cinza
 D                     G         D     G
 E o que era verde aqui já não existe mais
C             Bm
 Quem me dera acreditar
 Am          G        D             C
 Que não acontece nada de tanto brincar com fogo
     Em              A7
 Que venha o fogo então

#4t1#Solo:
#4t2#E|-----------------------|
B|-4-4-4-2--4-4-4-2--4-2-|
G|-----------------------| (9x)
D|-----------------------|
A|-----------------------|
E|-----------------------|#/4t2##/4t1#


#5t1#Riff 2
        D                                            G          Bm
#5t2#E|-3/5-5--3-3-3/5-5--3-3-3/5-5--3-3-3/5-5--3-3-----------------------|
B|-5/7-7--5-5-5/7-7--5-5-5/7-7--5-5-5/7-7--5-5--8-8-8-8-8--7-7-7-7-7-|
G|----------------------------------------------7-7-7-7-7--7-7-7-7-7-|
D|----------------------------------------------9-9-9-9-9--9-9-9-9-9-|
A|-------------------------------------------------------------------|
E|-------------------------------------------------------------------|#/5t2##/5t1#

#6t1#        Em         A
#6t2#E|----------------------|
B|-8-8-8-8-8--5-5-5-5-5-|
G|-9-9-9-9-9--6-6-6-6-6-|
D|-9-9-9-9-9--7-7-7-7-7-|
A|----------------------|
E|----------------------|#/6t2##/6t1#


Riff 2
 D   A    F#m        A      G   D/F# Em
 Esse ar deixou minha vista cansada
 A     D   A F#m A
 Nada demais
         G   D/F#  Em A
 Nada demais


Tab de teclado add por: Bruno Legionários-BH.
Composição: Renato RussoColaboração e revisão: Angelo CuissiBruno LegionárioRodrigo SilveiraAgnaldo Matheuse mais 5