busca

Fábrica

Legião Urbana

Tom: G
(Renato Russo)                                                                          Versão: Dois


Afinação: (Eb Ab Db Gb Bb Eb) Afrouxar as cordas em uma casa ou 1/2 tom abaixo.
           6ª 5ª 4ª 3ª 2ª 1ª

Intro: (Com distorção)              D   G   D   G           
E|-------------------------------||-5..-3..-5..-3..-|
B|-------------------------------||-7..-3..-7..-3..-|
G|-------------3-----------------||-7..-4..-7..-4..-|
D|-------------1--------------xx-||-7..-5..-7..-5..-|
A|--5-5-5-3-5-----5-5-5-3-5/3-xx-||-5..-5..-5..-5..-|
E|-------------------------------||-----3..-----3..-|
 
Riff 1 (Faça esse riff no lugar do acorde 'D')
   D
E|------5--------5-----5------|
B|----7-----7------7-----7----|
G|-7------7----7-----7-----7--|
D|----------------------------|
A|----------------------------|
E|----------------------------|

Riff 1
 D      G           D    G             D
 Nosso dia vai chegar, teremos nossa vez
     G          D       G
 Não é pedir demais quero justiça

 C           Bm
 Quero trabalhar em paz
 Am           G
 Não é muito o que lhe peço
 D           C
 Eu quero trabalho honesto
    E5             A
 Em vez de escravidão

Riff 1
 D       G         D       G
 Deve haver algum lugar onde o mais forte
 D     G           D         G
 Não consegue escravizar quem não tem chance


D      A       F#m   A
 De onde vem a indiferença
 G    Bm    E      A
 Temperada a ferro e fogo?
D A    F#m       A       G  Bm        E A
  Quem guarda os portões da fábrica? 

   D       G        D     G
 O céu já foi azul, mas agora é cinza
 D                     G   
 E o que era verde aqui já não existe mais
C             Bm
 Quem me dera acreditar
 Am          G        D             C
 Que não acontece nada de tanto brincar com fogo
     E5              A
 Que venha o fogo então

Solo:                - Juntos -
 |-------------14-------|9 |-6\4-4--6\4-4--4\2-2-6-|
 |-16-16-14-16----16-14-|v |-4\2-2--4\2-2--4\2-2-4-|
 |----------------------|e |-----------------------|
 |----------------------|z |-----------------------|
 |----------------------|e |-----------------------|
 |----------------------|s |-----------------------|

Riff 2
   D                                            G          Bm
|-3/5-5--3-3-3/5-5--3-3-3/5-5--3-3-3/5-5--3-3-----------------------|
|-5/7-7--5-5-5/7-7--5-5-5/7-7--5-5-5/7-7--5-5--8-8-8-8-8--7-7-7-7-7-|
|----------------------------------------------7-7-7-7-7--7-7-7-7-7-|
|----------------------------------------------9-9-9-9-9--9-9-9-9-9-|
|-------------------------------------------------------------------|
|-------------------------------------------------------------------|

   Em         A
|----------------------|
|-8-8-8-8-8--5-5-5-5-5-|
|-9-9-9-9-9--6-6-6-6-6-|
|-9-9-9-9-9--7-7-7-7-7-|
|----------------------|
|----------------------|


Riff 2
 D   A    F#m        A      G   Bm  Em
 Esse ar deixou minha vista cansada
 A     D   A F#m A
 Nada demais
        G    Bm  Em A D
 Nada demais.


Transcrito por: Renan Pinto dos Santos

Clipes