busca

High Noon (Do Not Forsake Me)

Legião Urbana

Tom: D
Tema do filme Matar ou Morrer
(ODimitri Tiomkin / Ned Washington)

Dado Villa-Lobos: Violão
Marcelo Bonfá: Bateria, Pandeiro
Carlos Trilha: Teclados, Programações


          D                       G
E---------0--2-----3--2--0--------0--2--0---------------------------------|
B------3--------3-----------3--3-----------3--0---------------------------|
G---2---------------------------------------------------------------------|
D-------------------------------------------------------------------------|
A-------------------------------------------------------------------------|
E-------------------------------------------------------------------------|

     Em          A     D   Bm  F#   A            D
E--------------------5--------7--6--5-----5--5-----0--0-2-----------------|
B--5--5--7--8--7--5-----8--7-----------7--------7-------------------------|
G-------------------------------------------------------------------------|
D-------------------------------------------------------------------------|
A-------------------------------------------------------------------------|
E-------------------------------------------------------------------------|

       D             D                Em          A                   D
E---------0--2-----3--2--0--------2-----3-----5----7--9--10--10--9--7--5--|
B------3--------3-----------3--3-----3-----3-----3------------------------|
G---2---------------------------------------------------------------------|
D-------------------------------------------------------------------------|
A-------------------------------------------------------------------------|
E-------------------------------------------------------------------------|

 
         G                          D
E-----------0---2---5------------|
B---3---3------------------------|
G--------------------------------|
D--------------------------------|
A--------------------------------|
E--------------------------------| (3x)

         A        D
E---3---2------------------------|
B--------------------------------|
G--------------------------------|
D--------------------------------|
A--------------------------------|
E--------------------------------| 
 

Cifrada por Lucas Queiroga

Clipes