High Noon (Do Not Forsake Me)

Legião Urbana

A
123
X02220
Bm
234
X24432
D
123
XX0232
Em
12
022000
F#
234
244322
G
123
320003
Tom: G
Tema do filme Matar ou Morrer
(ODimitri Tiomkin / Ned Washington)

Dado Villa-Lobos: Violão
Marcelo Bonfá: Bateria, Pandeiro
Carlos Trilha: Teclados, Programações


#1t1#          D                       G
#1t2#E---------0--2-----3--2--0--------0--2--0---------------------------------|
B------3--------3-----------3--3-----------3--0---------------------------|
G---2---------------------------------------------------------------------|
D-------------------------------------------------------------------------|
A-------------------------------------------------------------------------|
E-------------------------------------------------------------------------|#/1t2##/1t1#

#2t1#     Em          A     D   Bm  F#   A            D
#2t2#E--------------------5--------7--6--5-----5--5-----0--0-2-----------------|
B--5--5--7--8--7--5-----8--7-----------7--------7-------------------------|
G-------------------------------------------------------------------------|
D-------------------------------------------------------------------------|
A-------------------------------------------------------------------------|
E-------------------------------------------------------------------------|#/2t2##/2t1#

#3t1#       D             D                Em          A                   D
#3t2#E---------0--2-----3--2--0--------2-----3-----5----7--9--10--10--9--7--5--|
B------3--------3-----------3--3-----3-----3-----3------------------------|
G---2---------------------------------------------------------------------|
D-------------------------------------------------------------------------|
A-------------------------------------------------------------------------|
E-------------------------------------------------------------------------|#/3t2##/3t1#

 
#4t1#         G                          D
#4t2#E-----------0---2---5------------|
B---3---3------------------------|
G--------------------------------|
D--------------------------------|
A--------------------------------|
E--------------------------------| (3x)#/4t2##/4t1#

#5t1#         A        D
#5t2#E---3---2------------------------|
B--------------------------------|
G--------------------------------|
D--------------------------------|
A--------------------------------|
E--------------------------------| #/5t2##/5t1#
 

Cifrada por Lucas Queiroga
Composição: Dimitri TiomkinColaboração e revisão: Lucas Queiroga