Música: Dado Villa-Lobos/Renato Russo/Marcelo Bonfá / Música: Dado Villa-Lobos/Renato Russo/Marcelo Bonfá /
busca

Love Song

Legião Urbana

Tom: C
Letra: Nuno Fernandes Torneol (séc XIII) 
Música: Dado Villa-Lobos/Renato Russo/Marcelo Bonfá 

Intro:
e|-------------5------3------3-----------------|
B|-8-----5-----5------5------5-------5---------|
G|-9-----5---------------------------5---------|
D|---------------------------------------------|
A|---------------------------------------------|
E|---------------------------------------------|

(Am C* Am G Am)2x 

e|-10-8-7-8-7---------------------------10-8-7-8-7----------|
B|------------10-8-10*-10-8-10*-10-8---------------10-8-10*-|
G|-----------------------------------9*---------------------|
D|----------------------------------------------------------|
A|----------------------------------------------------------|
E|----------------------------------------------------------|

      Am          G   Am 
Pois nasci nunca vi amor 
   G               Am 
E ouço del sempre falar. 
     C          G    C
Pero sei que me quer matar 
       Dm            Em 
Mais rogarei a mia senhor 
        Am       G     Am 
Que me mostr' aquel matador 
            G   Em     F  Am  G  Am
Ou que m'ampare del melhor. 


C* (032013)  

 

(Por: Gabriel Ysllu Chagas)

Clipes