Mais Uma Vez

Legião Urbana

A
123
X02220
A4+(9)
12
X0X44X
A5(9)
12
X02200
A5+
123
X03220
A9
12
X02200
B11
234
X24452
B4(7)
123
X2220X
Bm7(11)
123
X20230
C#m7
34
X46454
D5(6/9)
1
XX0200
D5(7M/9)
12
XX0220
D5(9)
134
X579XX
E
123
022100
E4
123
022200
F#m7
1234
2X222X
F#m7(11)
123
2X220X
Tom: G
[Intro] A5(9)  A9  A4+(9) 
        A5(9)  A4+(9) 

[Violão 1]

#1t1#   A5(9)  A9  A4+(9)
#1t2#E|----------------------------------------------|
B|-6------3---5---------------------------------|
G|-5------5---5---------------------------------|
D|----------------------------------------------|
A|-1----------1---------------------------------|
E|----------------------------------------------|#/1t2##/1t1#

#2t1#   A5(9)    A4+(9)
#2t2#E|----------------------------------------------|
B|-6---6----5--5p3------------------------------|
G|-5---5----5-------3---------------------------|
D|----------------------------------------------|
A|-1--------1-----------------------------------|
E|----------------------------------------------|#/2t2##/2t1#

[Violão 2]

#3t1##3t2#E|----------------------------------------------|
B|----------------------------------------------|
G|--3-3-3-------------------2-2-----------------|
D|--------5-5-5-3-3-3-5-5-5-----5-3-------------|
A|----------------------------------------------|
E|----------------------------------------------|#/3t2##/3t1#

#4t1##4t2#E|----------------------------------------------|
B|----------------------------------------------|
G|--2-2-2---------------------------------------|
D|--------5-5-5-3-3-3-3-3-3---------------------|
A|----------------------------------------------|
E|----------------------------------------------|#/4t2##/4t1#

[Primeira Parte]

        A5(9)
Mas é claro que o sol
        B11
Vai voltar amanhã
          C#m7    F#m7(11) B4(7) E4 E
Mais uma vez, eu sei
       A5(9)
Escuridão já vi pior
           B11
De endoidecer gente sã
              C#m7   F#m7(11) B4(7) E4 E
Espera que o sol já vem

#5t1#[Dedilhado da Primeira Parte]

    A5(9)           B11
#5t2#E|-------------1--------1--------1--------------|
B|-----------3-------------5--------5-----------|
G|--------5-------------------5--------5--------|
D|-----3----------------------------------5-----|
A|--1---------------3---------------------------|
E|----------------------------------------------|#/5t2##/5t1#

#6t1#     C#m7            F#m7(11)   B4(7) E4    E
#6t2#E|-------------1--------------------------------|
B|----------1-------------------1---------------|
G|-----2h3-----------3----------3-----3-----2---|
D|-------------------3----------3-----3-----3---|
A|-5----------------------------3-----3-----3---|
E|-------------------3----------------1-----1---|#/6t2##/6t1#

[Segunda Parte]

A5(9)
     Tem gente que está do mesmo lado

Que você mas deveria estar do lado de lá
F#m7(11)
        Tem gente que machuca os outros
D5(6/9)                     Bm7(11) E
       tem gente que não sabe     amar
A5(9)
     Tem gente enganando a gente
F#m7(11)
        Veja nossa vida como está
D5(6/9)                         Bm7(11)   E
       Mas eu sei que um dia a gente   aprende
A5(9)                                   F#m7(11)
     Se você quiser alguém em quem confiar 

Confie em si mesmo
D5(6/9)               Bm7(11)  E
       Quem acredita sempre alcança

#7t1#[Dedilhado da Segunda Parte]

   A5(9)
#7t2#E|-----1-----1---------1-----1------------------|
B|---1-----1-----1---1-----1---1----------------|
G|-3-----3-----3---3-----3-------3--------------|(2x)
D|----------------------------------------------|
A|-1---------------1----------------------------|
E|----------------------------------------------|#/7t2##/7t1#

#8t1#   F#m7(11)
#8t2#E|-----1-----1---------1-----1------------------|
B|---1-----1-----1---1-----1---1----------------|
G|-3-----3-----3---3-----3-------3--------------|
D|----------------------------------------------|
A|----------------------------------------------|
E|-3---------------3----------------------------|#/8t2##/8t1#

#9t1#   D5(6/9)         Bm7(11)     E
#9t2#E|-----1-----1---------1---------1--------------|
B|---1-----1-----1---1-------------1------------|
G|-3-----3-----3---3-------3-2h3----------------|
D|-1--------------------------------------------|
A|-----------------3----------------------------|
E|-----------------------------1----------------|#/9t2##/9t1#

[Solo] A5(9) 

#10t1#   A5(9)
#10t2#E|----------10-------8--------------------------|
B|----------------------------------------------|
G|----8/10------7/8-----------------------------|
D|----------------------------------------------|
A|-1--------------------------------------------|
E|----------------------------------------------|#/10t2##/10t1#

#11t1#   A5(9)
#11t2#E|----------8--6/5--3--1---5/6------------------|
B|----------------------------------------------|
G|----7/8------7/5--3--2---6/7------------------|
D|----------------------------------------------|
A|-1--------------------------------------------|
E|----------------------------------------------|#/11t2##/11t1#

[Primeira Parte com variação]

        A5(9)
Mas é claro que o sol
        B11
Vai voltar amanhã
          C#m7    F#m7(11)  B4(7)  E4  E
Mais uma vez, eu sei
       A5(9)        A5+
Escuridão já vi pior
           B11
De endoidecer gente sã
              C#m7   F#m7(11)  B4(7)  E4  E
Espera que o sol já vem

#12t1#[Dedilhado da Primeira Parte]

   A5(9)            B11
#12t2#E|-------------1--------1--------1--------------|
B|-----------3-------------5--------5-----------|
G|--------5-------------------5--------5--------|
D|-----3----------------------------------5-----|
A|--1----------------3--------------------------|
E|----------------------------------------------|#/12t2##/12t1#

#13t1#   C#m7              F#m7(11) B4(7) E4    E
#13t2#E|-------------1--------------------------------|
B|----------1-----------------1-----------------|
G|-----2h3-----------3--------3-----3-----2-----|
D|-------------------3--------3-----3-----3-----|
A|-5--------------------------3-----3-----3-----|
E|-------------------3--------------1-----1-----|#/13t2##/13t1#

#14t1#    A5(9)       A5+    B11
#14t2#E|----------1---2------1---------1--------------|
B|--------3-----3--------5----------5-----------|
G|------5-------3-----------5----------5--------|
D|----3---------4--------------5----------5-----|
A|--1-----------1------3------------------------|
E|----------------------------------------------|#/14t2##/14t1#

#15t1#   C#m7              F#m7(11) B4(7) E4    E
#15t2#E|-------------1--------------------------------|
B|----------1-----------------1-----------------|
G|-----2h3-----------3--------3-----3-----2-----|
D|-------------------3--------3-----3-----3-----|
A|-5--------------------------3-----3-----3-----|
E|-------------------3--------------1-----1-----|#/15t2##/15t1#

[Segunda Parte com variação]

A5(9)
     Nunca deixe que lhe digam que não vale a pena

Acreditar no sonho que se tem
F#m7(11)
        Ou que seus planos nunca vão dar certo
D5(6/9)                       Bm7(11)    E
       Ou que você nunca vai ser     alguém
A5(9)
     Tem gente que machuca os outros
F#m7(11)
        Tem gente que não sabe amar
D5(6/9)                         Bm7(11) E
       Mas eu sei que um dia a gente aprende
A5(9)                                   F#m7(11)
     Se você quiser alguém em quem confiar

Confie em si mesmo
  D5(9)        Bm7(11)  E
Quem acredita sempre alcança

( A5(9)  F#m7(11)  D5(6/9)  Bm7(11)  E )

#16t1#   A      A5(9)         A         A5(9)    A
#16t2#E|-----1----1----X--1--------1----1-----1--1----|
B|-----3----1----X--1--------3----1-----1--3----|
G|-----3----3----X--3--------3----3-----3--3----|
D|---3-----------X---------3--------------------|
A|-1------1------X------1-------1----1----------|
E|---------------X------------------------------|#/16t2##/16t1#

#17t1#   F#m7     F#m7(11)         F#m7 F#m7(11) F#m7
#17t2#E|-----1----1----X--1--------1----1-----1--1----|
B|-----3----1----X--1--------3----1-----1--3----|
G|-----3----3----X--3--------3----3-----3--3----|
D|---3-----------X---------3--------------------|
A|---------------X------------------------------|
E|-3------3------X------3-------3-----3---------|#/17t2##/17t1#

#18t1#   D5(7M/9)  D5(6/9)     Bm7(11) E
#18t2#E|------1----1----X--1-------1-------1----------|
B|------3----1----X--1-----1-----------1--------|
G|---3--3----3----X--3---3-----3-2h3------------|
D|-1------1-------X-----------------------------|
A|----------------X------3----------------------|
E|----------------X-----------------------------|#/18t2##/18t1#

[Final]

A5(9)
     Quem acredita sempre alcança
F#m7(11)
        Quem acredita sempre alcança
D5(6/9)               Bm7(11)  E
       Quem acredita sempre alcança

A5(9)
     Quem acredita sempre alcança
F#m7(11)
        Quem acredita sempre alcança
D5(6/9)               Bm7(11)  E
       Quem acredita sempre alcança

( A5(9) )

#19t1#[Dedilhado do Final]

   A5(9)
#19t2#E|-------1-----1---------1-----1----------------|
B|-----1-----1-----1---1-----1---1--------------|
G|---3-----3-----3---3-----3-------3------------|(2x)
D|----------------------------------------------|
A|-1-------------1---1--------------------------|
E|----------------------------------------------|#/19t2##/19t1#

#20t1#   F#m7(11)
#20t2#E|-------1-----1---------1-----1----------------|
B|-----1-----1-----1---1-----1---1--------------|
G|---3-----3-----3---3-----3-------3------------|
D|----------------------------------------------|
A|----------------------------------------------|
E|-3-------------3---3--------------------------|#/20t2##/20t1#

#21t1#   D5(6/9)            Bm7(11)  E
#21t2#E|-------1-----1---------1---------1------------|
B|-----1-----1-----1---1-------------1----------|
G|---3-----3-----3---3-------3-2h3--------------|
D|-1--------------------------------------------|
A|-------------------3--------------------------|
E|-----------------------------1----------------|#/21t2##/21t1#

[Solo]

#22t1#   A5(9)
#22t2#E|----------10-------8--------------------------|
B|----------------------------------------------|
G|----8/10------7/8-----------------------------|
D|----------------------------------------------|
A|-1--------------------------------------------|
E|----------------------------------------------|#/22t2##/22t1#

#23t1#   A5(9)
#23t2#E|----------8--6/5--3--1---5/6------------------|
B|----------------------------------------------|
G|----7/8------7/5--3--2---6/7------------------|
D|----------------------------------------------|
A|-1--------------------------------------------|
E|----------------------------------------------|#/23t2##/23t1#

#24t1#   A5(9)
#24t2#E|----------10-------8--------------------------|
B|----------------------------------------------|
G|----8/10------7/8-----------------------------|
D|----------------------------------------------|
A|-1--------------------------------------------|
E|----------------------------------------------|#/24t2##/24t1#

#25t1#   A5(9)
#25t2#E|----------8--6/5--3--1---5/6------------------|
B|----------------------------------------------|
G|----7/8------7/5--3--2---6/7------------------|
D|----------------------------------------------|
A|-1--------------------------------------------|
E|----------------------------------------------|#/25t2##/25t1#
Composição: Colaboração e revisão: Thiago AlmeidaCaroline LeroyLuana ReisFabrício Colarese mais 2
Videoaula Mais Uma Vez (aula de violão completa)