busca

Metal Contra As Nuvens

Legião Urbana

Tom: Am
[Intro] Em7  A7  C  G  D9/F#
        Em7  A7  C  G  D9/F# 
        Em7  A7  C  G  D9/F# 
        Em7  A7  C  G  D9/F#  
        Em  D  C  Am  G  D9/F#  
        Em  D  C  Am  G  D9/F#  
        Em  D  C  Am  G  D9/F#  
        Em  D  C  Am  G  D

[Violão Solo]

   Em7         A7
E|------------------0--------------------------------|
B|-----3-----3----2---2------------------------------|
G|---0-----0----0-------0----------------------------|
D|-2-----2-----2-------------------------------------|
A|---------------------------------------------------|
E|---------------------------------------------------|

   C           G       D
E|---------------3-----2-----------------------------|
B|-----1-----1-----3-----3---------------------------|
G|---0-----0---------2-----2-------------------------|
D|-2-----2-----0-------------------------------------|
A|---------------------------------------------------|
E|---------------------------------------------------|

   Em       D          C
E|-----10--------7-----------5-3---------------------|
B|---8-------------5-------3-----5-3h5p3-------------|
G|-9------9\7-7------7\4-4---------------4\----------|
D|---------------------------------------------------|
A|---------------------------------------------------|
E|---------------------------------------------------|

   Am      G        D
E|-----------3----------2h3p2------------------------|
B|---1---------3------3-------3---3------------------|
G|-----2---------4--2-----------2---2----------------|
D|-2-----2-0-----------------------------------------|
A|---------------------------------------------------|
E|---------------------------------------------------|

[Violão Base]

   Em      D       C
E|-3-----3-2-----2-0-----0---------------------------|
B|---0-------3-------1-----1-------------------------|
G|-----0-------2-------0-------0---------------------|
D|-2-------0-----------------------------------------|
A|-----------------3---------2-----------------------|
E|---------------------------------------------------|

   Am      G       D9/F#
E|---------------------------------------------------|
B|-1-----1-0-----0--------3--------------------------|
G|---2-------0-----2----2---2---2--------------------|
D|-----2-------0---0--0-------0----------------------|
A|-0---------------0---------------------------------|
E|---------3-------2---------------------------------|

[Primeira Parte]

                        G  D  G
Não sou escravo de ninguém
                          D    A5(9)  D
Ninguém, senhor do meu domínio
                     C
Sei o que devo defender

E, por valor eu tenho
   Em                     A7  D
E temo o que agora se desfaz

               G     D  G
Viajamos sete léguas
                        D    A5(9)  D
Por entre abismos e florestas
                          C
Por Deus nunca me vi tão só
                          Em
É a própria fé o que destrói
                    A7   D
Estes são dias desleais

[Refrão]

          C/G  D9(11)/A
Eu sou metal
                      G  G/F#  Em
Raio, relâmpago e trovão
          C/G  D9(11)/A
Eu sou metal
                         G  G/F#  Em
Eu sou o ouro em seu brasão
          C/G  D9(11)/A
Eu sou metal
                       F7M(11+)  G
Me sabe o sopro do dragão

[Continuação - Primeira Parte]

E|-----3-----3----5-----3-----3----------------------|
B|---5---5----------5-----5-----5--------------------|
G|-5-------5---5------5-----5------------------------|
D|---------------------------------------------------|
A|---------------------------------------------------|
E|---------------------------------------------------|

E|---3-----3-----3-----3-----------------------------|
B|-----1-----1-----1-----1---------------------------|
G|-2-----2-----2-----2-----2-------------------------|
D|---------------------------------------------------|
A|---------------------------------------------------|
E|---------------------------------------------------|

E|---2-----2-----2-----2-----------------------------|
B|-----3-----3-----3-----3---------------------------|
G|-2-----2-----2-----2-----2-------------------------|
D|---------------------------------------------------|
A|---------------------------------------------------|
E|---------------------------------------------------|

E|---1-----1-----1-----1-----------------------------|
B|-----1-----1-----1-----1---------------------------|
G|-2-----2-----2-----2-----2-------------------------|
D|---------------------------------------------------|
A|---------------------------------------------------|
E|---------------------------------------------------|

E|-----3-----3-----3-----3---------------------------|
B|-------3-----3-----3-----3-------------------------|
G|-2/4-----4-----4-----4-----4-----------------------|
D|---------------------------------------------------|
A|---------------------------------------------------|
E|---------------------------------------------------|

C                  Am
  Reconheço meu pesar
        Am/G       D9/F#
Quando tudo é traição
                   F7M(11+)
O que venho encontrar
                       G
É a virtude em outras mãos

[Segunda Parte]

E|-9/7--5--3--3--2--2h3p2-----2----------------------|
B|--------------------------3------------------------|
G|-9/7--6--4--4--2--------2--------------------------|
D|---------------------------------------------------|
A|---------------------------------------------------|
E|---------------------------------------------------|

E|-------3-----3------5\4-4-----9--------------------|
B|---------3-----3-----------------------------------|
G|-2-2/4-----4-----4--6\4-4-7/9----------------------|
D|---------------------------------------------------|
A|---------------------------------------------------|
E|---------------------------------------------------|

A7        D
   Minha terra
G      E           A7   D
  É a terra que é minha
            G  E
E sempre será
A7        D
   Minha terra
G        E           A7  D
  Tem a lua, tem estrelas
            G  E
E sempre terá

( A5  G5 )  
( A5  G5 )  
( A5  G5 )  
( A5  G5 ) 

[Terceira Parte]

[Violão Solo]

E|---------------------------------------------------|
B|---------------------5b¼---------------7-7---7-7~--|
G|---------------------5b¼---------------7-7---7-7~--|
D|-7-x-x-7-x-x-7-x-x-7-----7-x-x-7-x-x-7-----7-------|
A|---------------------------------------------------|
E|---------------------------------------------------|

E|---------------------------------------------------|
B|---------------------5b¼---------------------------|
G|---------------------5b¼------------7p5---7p5---7p5|
D|-7-x-x-7-x-x-7-x-x-7----7-x-x-7-x-x-----7-----7----|
A|---------------------------------------------------|
E|---------------------------------------------------|

 A5              G5  A5        G5
Quase acreditei na sua promessa
A5                  G5     A5    G5
E o que vejo é fome e destruição
    A5             G5   A5         G5
Perdi a minha sela e a minha espada
    A5              G5    A5         G5
Perdi o meu castelo e minha princesa

[Violão Solo - Riff]

E|---------------------------------------------------|
B|-------5b¼--------------------5b¼------------------|
G|-------5b¼------5/7-----------5b¼------5/7-7-7p5~--|
D|-7-5-7----7-6-5----------5-6-7---7-6-5-------------|
A|-------------------5-6-7---------------------------|
E|---------------------------------------------------|

[Violão Base - Riff]

E|---------------------------------------------------|
B|---------------------------------------------------|
G|---------------------------------------------------|
D|---------------------------------------------------|
A|-------3-------3h5-------------3-------3/5-5-5-5-3-|
E|-5-3h5---5-4-3-----2-1-0-3-4h5---5-4-3-------------|

 A5      G5  A5  G5
Quase acreditei
 A5      G5  A5  G5
Quase acreditei
A5          G5  A5             G5
E, por honra,  se existir verdade
  A5            
Existem os tolos e existe o ladrão

E há quem se alimente do que é roubo

Mas vou guardar o meu tesouro
                        G5   A5   G5
Caso você esteja mentindo

        A5            G5  A5  G5
Olha o sopro do dragão
        A5            G5  A5  G5
Olha o sopro do dragão
        A5          G5  A5  G5
Olha o sopro do dragão
        A5            G5  A5  G5
Olha o sopro do dragão

( Em  D  C  Am  G  D9/F# )
( Em  D  C  Am  G  D9/F# )
( Em  D  C  Am  G  D9/F# )
( Em  D  C  Am  G  D )

[Primeira Parte - variação]

                     G    D  G
É a verdade o que assombra
                  D   A5(9)  D
O descaso que condena
                        C
A estupidez, o que destrói
                     Em
Eu vejo tudo que se foi
                    A7   D
E o que não existe mais

                         G    D  G
Tenho os sentidos já dormentes
                        D   A5(9)  D
O corpo quer, a alma entende
                       C
Esta é a terra-de-ninguém
                   Em
Sei que devo resistir
                             A7  D
Eu quero a espada em minhas mãos

[Refrão]

          C/G  D9(11)/A
Eu sou metal
                      G  G/F#  Em
Raio, relâmpago e trovão
          C/G  D9(11)/A
Eu sou metal
                         G  G/F#  Em
Eu sou o ouro em seu brasão
          C/G  D9(11)/A
Eu sou metal
                       F7M(11+)  G
Me sabe o sopro do dragão

C                        Am
   Não me entrego sem lutar
        Am/G       D9/F#
Tenho, ainda, coração
                     F7M(11+)
Não aprendi a me render
                      G
Que caia o inimigo então

( Em7  A7  C  G  D9/F# )
( Em7  A7  C  G  D9/F# )

[Refrão]

      Em7  A7            C  G  D9/F#
Tudo passa,   tudo passará
      Em7  A7            C  G  D9/F#
Tudo passa,   tudo passará
      Em7  A7            C  G  D9/F#
Tudo passa,   tudo passará

( Em7  A7  C  G  D9/F# )
( Em7  A7  C  G  D9/F# )
( Em7  A7  C  G  D9/F# )
( Em7  A7  C  G  D9/F# )
( Em  D  C  Am  G  D9/F# )
( Em  D  C  Am  G  D9/F# )
( Em  D  C  Am  G  D9/F# )
( Em  D  C  Am  G  D )

[Quarta Parte - Final]

           C         Em/B          Am7
E nossa história não estará pelo avesso assim
       G
Sem final feliz
C                   Em            Am7   D
  Teremos coisas bonitas pra contar

  C D  G
E até lá
C    D     G
  Vamos viver
 C           D     G
Temos muito ainda por fazer

C     D          Em
  Não olhe pra trás
  C     D     G
Apenas começamos
   C       D     G   C  D  Em
O mundo começa agora
  C     D     G   C9  G
Apenas começamos

Clipes