busca

Mil Pedaços

Legião Urbana

Tom: C
G       Bm     C   G/Bb                     Am   D4 D
 Eu não me perdi e mesmo assim você me abandonou
G       Bm     C      G/Bb         Am
 Você quis partir e agora estou sozinho
 G          Bm    C           G            F             Am        D4 D
Mas vou me acostumar com o silêncio em casa com um prato só na mesa
Em             Am   Em          C  D     G     Bm    C
  Eu não me perdi o Sândalo perfuma o machado que o feriu

(riff 1)
       Am      Bm      C       D7             G
E|-----5-------7-------8---------10-----------|
B|---5---5---7---7---8---8----10----10--------|
G|-5-------7-------9-------11----------11/12--|
D|--------------------------------------------|
A|--------------------------------------------|
E|--------------------------------------------|

(riff 1)
 Am     Bm    C    D          G
Adeus adeus adeus meu grande amor
C#m      F#    Bm           E   Am                D4 D
E tanto faz de tudo o que ficou guardo um retrato teu
        C             D
E a saudade mais bonita
G       Bm     C     G/Bb             Am
 Eu não me perdi e mesmo assim ninguém me perdoou
G    Bm    C                G/Bb        Am          C     (D4 1) D G
 Pobre coração - quando o teu estava comigo era tão bom.
Ab             Bb     Eb     Db             Fm
  Não sei por quê acontece assim e é sem querer

(riff 2)                         (riff 3)
        C
E|-------------------------|    e|--5-5-5---5-3---3-1-----|
B|-----5-5-5-3-3-3-2-2-2h4-|    B|3-------3-----3------3--|
G|-3/5---------------------|    G|------------------------|
D|-------------------------|    D|------------------------|
A|-------------------------|    A|------------------------|
E|-------------------------|    E|------------------------|

          Bb       C (riff 2)  G         Em
O que não era pra ser: Vou fugir dessa dor.
      Am        Bb (riff 3)       Am
Meu amor, se quiseres voltar - volta não
       Bb               G
Porque me quebraste em mil pedaços.

( C  Bb  Dm  G )

(solo final)
E|-------------------------------------------|
B|-5---5-6-8-8/11-13-10---------10-8---8-8---|
G|----------------------10-7-10------7-------|
D|-------------------------------------------|
A|-------------------------------------------|
E|-------------------------------------------|

( D4 )

Clipes