Música Urbana 2

Legião Urbana

Em
12
022000
Em5
12
022000
F
234
133211
F#
234
244322
F#5
134
244XXX
F5
134
133XXX
G
123
320003
G5
134
355XXX
Tom: G
#1t1##1t2# --------#/1t2##/1t1#
#2t1#| RIFF 1 |
#2t2# --------#/2t2##/2t1#

#3t1##3t2#e|-----------------------|
B|-----------------------|
G|-----------------------|
D|--0-0--2-2--3-3--2-2---|
A|-----------------------|
E|--3-3--3-3--3-3--3-3---|#/3t2##/3t1#

#4t1##4t2# --------#/4t2##/4t1#
#5t1#| RIFF 2 |
#5t2# --------#/5t2##/5t1#

#6t1##6t2#e|----------------------------------------|
B|----------------------------------------|
G|--0-0--2-2--3-3--2-2--0--3---3-3-2-0-0--|
D|----------------------------------------|
A|--3-3--3-3--3-3--3-3--3--3---3-3-3-3-3--|
E|----------------------------------------|#/6t2##/6t1#

#7t1##7t2# --------#/7t2##/7t1#
#8t1#| RIFF 3 |
#8t2# --------#/8t2##/8t1#

#9t1##9t2#e|----2---3---0----0----------------------|
B|----3---3---1----1----------------------|
G|----2---2---0----0----------------------|
D|--0---0-----2----2----------------------|
A|----------3----2----2h3-0---------------|
E|----------------------------------------|#/9t2##/9t1#

#10t1##10t2# --------#/10t2##/10t1#
#11t1#| RIFF 4 |
#11t2# --------#/11t2##/11t1#

#12t1##12t2#e|------------------------|
B|------------------------|
G|--3--3/5-5-5------------|
D|------------------------|
A|--3--3/5-5-5------------|
E|------------------------|#/12t2##/12t1#

#13t1##13t2# --------#/13t2##/13t1#
#14t1#| RIFF 5 |
#14t2# --------#/14t2##/14t1#

#15t1##15t2#e|------------------------|
B|------------------------|
G|-----0----0----0--------|
D|--0h2--0h2--0h2--0------|
A|------------------------|
E|------------------------|#/15t2##/15t1#

#16t1##16t2# -------#/16t2##/16t1#
#17t1#| FINAL |
#17t2# -------#/17t2##/17t1#
#18t1#    Em5 F5  F#5 G5  
#18t2#e|------------------------|
B|------------------------|
G|------------------------|
D|--2--3--4--5------------|
A|--2--3--4--5------------|
E|--0--1--2--3------------|#/18t2##/18t1#


Intro (Riff 1 4x)

(Riff 1 4x)
Em cima dos telhados as antenas de TV
Tocam música urbana

(Riff 2) 
Nas ruas, os mendigos com esparadrapos podres
(Riff 1 2x) 
Cantam música urbana

(Riff 3)
Motocicletas querendo atenção às três da manhã
(Riff 1)
É só música urbana

(Riff 4)

(Riff 1 4x)
Os PMs armados e as tropas de choque vomitam música urbana

(Riff 2) 
E nas escolas as crianças aprendem a repetir 
(Riff 1 2x) 
A música urbana

(Riff 3)
Nos bares os viciados sempre tentam conseguir
(Riff 1) 
A música urbana

(Riff 4)

(Riff 5 4x)
O vento forte, seco e sujo em cantos de concreto
Parece música urbana

(Riff 2)
E a matilha de crianças sujas no meio da rua
(Riff 1 2x) 
Música urbana

(Riff 3)
E nos pontos de ônibus estão todos ali
(Riff 1)
Música urbana

(Riff 4)

(Riff 1 4x)
Os uniformes, os cartazes
Cinemas e os lares
Favelas, coberturas, quase todos os lugares

(Riff 2)
E mais uma criança nasceu

(Riff 1 2x) 

(Riff 3)
Não há mentiras nem verdades aqui
Só há a música urbana

(Riff 1 2x) 

(Em F F# G)
Yeah! Música urbana
Ooh! Música urbana
Yeeeah! Música urbana
Música urbana Aaah!

( Na versão "Música p/ Acampamentos" ele termina com um trecho imitando a Janis Joplin:
" Oh Lord, won't you buy me, a Mercedes Benz ")
Composição: Renato RussoColaboração e revisão: Thiago GalvãoDiego PassosBruno Imbrizi