busca

O Grande Inverno da Rússia

Legião Urbana

Tom: F
                 

[Instrumental]

 [Guitarra c/ Distorção]
   Dm                Cm                    Bb            Am
E|----5--5--5--5---3----3--3--6--5--3--5---10--8--6--5---3--5--6--5--3--5--3-|
B|----6--6--6----------------------------------------------------------------|
G|-7--7--7--7----------------------------------------------------------------|
D|---------------------------------------------------------------------------|
A|---------------------------------------------------------------------------|
E|---------------------------------------------------------------------------|

   Gm                Fm                    Em            Fm        Gm
E|----5--5--5--5---3----3--3--6--5--3--5---10--8--6--5---3--5--6--5--3--5--3-|
B|----6--6--6----------------------------------------------------------------|
G|-7--7--7--7----------------------------------------------------------------|
D|---------------------------------------------------------------------------|
A|---------------------------------------------------------------------------|
E|---------------------------------------------------------------------------|

   Dm                Cm                    Bb            Am
E|----5--5--5--5---3----3--3--6--5--3--5---10--8--6--5---3--5--6--5--3--5--3-|
B|----6--6--6----------------------------------------------------------------|
G|-7--7--7--7----------------------------------------------------------------|
D|---------------------------------------------------------------------------|
A|---------------------------------------------------------------------------|
E|---------------------------------------------------------------------------|

   Gm                Fm                    Em            Fm        Gm
E|----5--5--5--5---3----3--3--6--5--3--5---10--8--6--5---3--5--6--5--3--5--3-|
B|----6--6--6----------------------------------------------------------------|
G|-7--7--7--7----------------------------------------------------------------|
D|---------------------------------------------------------------------------|
A|---------------------------------------------------------------------------|
E|---------------------------------------------------------------------------|

   Dm                Cm                    Bb            Am
E|------------------------------------------10~------------------------------|
B|-6~----------------10~---------------------------------10~-----------------|
G|---------------------------------------------------------------------------|
D|---------------------------------------------------------------------------|
A|---------------------------------------------------------------------------|
E|---------------------------------------------------------------------------|

   Gm                Fm                    Em            Em        Fm
E|-----------------------------------------10~-----------12--------13\-------|
B|-6~----------------10~-----------------------------------------------------|
G|---------------------------------------------------------------------------|
D|---------------------------------------------------------------------------|
A|---------------------------------------------------------------------------|
E|---------------------------------------------------------------------------|

   Dm                Cm                    Bb            Am
E|-----------------------------------------10~-------------------------------|
B|-6~----------------10~---------------------------------10~-----------------|
G|---------------------------------------------------------------------------|
D|---------------------------------------------------------------------------|
A|---------------------------------------------------------------------------|
E|---------------------------------------------------------------------------|

   Gm                Fm                    Em            Em        Fm
E|----5--5--5--5---3----3--3--6--5--3--5--------------12-12-12-12--13-13-13---|
B|----6--6--6-----------------------------------------------------------------|
G|-7--7--7--7-----------------------------------------------------------------|
D|----------------------------------------------------------------------------|
A|----------------------------------------------------------------------------|
E|----------------------------------------------------------------------------|

   Dm                Cm                     Bb             Am    
E|-13-13-13-13-13-13-13-13-13-13-13-13-13-13-13-13-13-13-13-13-13-13-13-13-13-|
B|----------------------------------------------------------------------------|
G|----------------------------------------------------------------------------|
D|----------------------------------------------------------------------------|
A|----------------------------------------------------------------------------|
E|----------------------------------------------------------------------------|

   Gm                Fm                    Em            Fm        Gm
E|----5--5--5--5---3----3--3--6--5--3--5---10--8--6--5---3-3-5-5-6-6-5-5-3-3-5-5-3-|4
B|----6--6--6----------------------------------------------------------------------|v
G|-7--7--7--7----------------------------------------------------------------------|e
D|---------------------------------------------------------------------------------|z
A|---------------------------------------------------------------------------------|e
E|---------------------------------------------------------------------------------|s

   Dm                Cm                    Bb            Am
E|---------------------------------------------------------------------------------|
B|--------------------6~--------------------10~-----------13~----------------------|
G|-7~------------------------------------------------------------------------------|
D|---------------------------------------------------------------------------------|
A|---------------------------------------------------------------------------------|
E|---------------------------------------------------------------------------------|

   Gm                Fm                    Em            Fm        Gm
E|---------------------------------------------------------------------------------|
B|-8~~~~---------------------------------------------------------------------------|
G|---------------------------------------------------------------------------------|
D|---------------------------------------------------------------------------------|
A|---------------------------------------------------------------------------------|
E|---------------------------------------------------------------------------------|
     >>>>>>>>>>>>>>>>>>>>>>>>>>>>>>>>>>>>>>>>>>>>>>>>>>>>>>>>>>>>>>>>>>>>>>>>>>>>>

   Dm                Cm                    Bb            Am
E|----5--5--5--5---3----3--3--6--5--3--5---10--8--6--5---3--5--6--5--3--5--3-|
B|----6--6--6----------------------------------------------------------------|
G|-7--7--7--7----------------------------------------------------------------|
D|---------------------------------------------------------------------------|
A|---------------------------------------------------------------------------|
E|---------------------------------------------------------------------------|

   Gm                Fm                    Em            Fm        Gm
E|----5--5--5--5---3----3--3--6--5--3--5---10--8--6--5---3--5--6--5--3--5--3-|
B|----6--6--6----------------------------------------------------------------|
G|-7--7--7--7----------------------------------------------------------------|
D|---------------------------------------------------------------------------|
A|---------------------------------------------------------------------------|
E|---------------------------------------------------------------------------|

“Nessa parte o teclado repete os dois últimos solos acima junto com o Riffs da Guitarra abaixo"
   Dm                Cm                    Bb            Am
E|---------------------------------------------------------------------------------|
B|---------------------------------------------------------------------------------|
G|-7~---------------7/5--------------------3~------------2~------------------------|
D|---------------------------------------------------------------------------------|
A|---------------------------------------------------------------------------------|
E|---------------------------------------------------------------------------------|

   Gm                Fm                    Em            Fm        Gm
E|---------------------------------------------------------------------------------|
B|---------------------------------------------------------------------------------|
G|---------------------------------------------------------------------------------|
D|-5~----------------3~--------------------2~------------3~--------5~--------------|
A|---------------------------------------------------------------------------------|
E|---------------------------------------------------------------------------------|

   Dm                Cm                    Bb            Am
E|-----------------------------------------------------------------------|
B|-----------------------------------------------------------------------|
G|-7-----------------5---------------------3-------------2---------------|
D|-7-----------------5---------------------3-------------2---------------|
A|-5-----------------3---------------------1-------------0---------------|
E|-----------------------------------------------------------------------|

   Gm                Fm                    Em            Em          Fm
E|-------------------------------------------------------12-12-12-12-13-|
B|-------------------------------------------------------12-12-12-12-13-|
G|-------------------------------------------------------12-12-12-12-13-|
D|--5~---------------3~---------------------2~--------------------------|
A|--5~---------------3~---------------------2~--------------------------|
E|--3~---------------1~---------------------0---------------------------|

   Dm                Cm                    Bb            Am
E|-13-13-13-13-13-13-13-13-13-13-13-13-13-13-13-13-13-13-13-13-13-13-13-|
B|-13-13-13-13-13-13-13-13-13-13-13-13-13-13-13-13-13-13-13-13-13-13-13-|
G|-13-13-13-13-13-13-13-13-13-13-13-13-13-13-13-13-13-13-13-13-13-13-13-|
D|----------------------------------------------------------------------|
A|----------------------------------------------------------------------|
E|----------------------------------------------------------------------|

   Gm                Fm                    Em            Em          Fm
E|-13-13-13-13-13-13-13-13-13-13-13-13-13-13-13-13-13-13-13-13-13-13-13-|
B|-13-13-13-13-13-13-13-13-13-13-13-13-13-13-13-13-13-13-13-13-13-13-13-|
G|-13-13-13-13-13-13-13-13-13-13-13-13-13-13-13-13-13-13-13-13-13-13-13-|
D|----------------------------------------------------------------------|
A|----------------------------------------------------------------------|
E|----------------------------------------------------------------------|

[Solo]
   Dm                Cm                    Bb            Am
E|----------------------------------------------------------------------|
B|------------------------------------10--8---10--8----8-8-8--11-8-10~--|
G|-7------------7h9p7-7-------7--7--7-----------------------------------|
D|----------------------------------------------------------------------|
A|----------------------------------------------------------------------|
E|----------------------------------------------------------------------|

   Gm                Fm                    Em            Fm          Gm
E|-------12-10~~--12r---10--12-12r------------------------------------------|
B|-10-10---------------------------------10--8~--------7-9-10----9-10r------|
G|------------------------------------9-----------7-9-----------------------|
D|--------------------------------------------------------------------------|
A|--------------------------------------------------------------------------|
E|--------------------------------------------------------------------------|

                 Dm                Cm            Bb            Am
E|-----------------------------------------------10--8--6--5---3--5--6--5--3--5--3-|
B|-8-10-11-10-8-10r--8--10r---8--10--10--8--10-------------------------------------|
G|---------------------------------------------------------------------------------|
D|---------------------------------------------------------------------------------|
A|---------------------------------------------------------------------------------|
E|---------------------------------------------------------------------------------|

   Gm                Fm                    Em            Fm        Gm
E|----5--5--5--5---3----3--3--6--5--3--5---10--8--6--5---12-12-12-12-13-|
B|----6--6--6--------------------------------------------12-12-12-12-13-|
G|-7--7--7--7--------------------------------------------12-12-12-12-13-|
D|----------------------------------------------------------------------|
A|----------------------------------------------------------------------|
E|----------------------------------------------------------------------|

   Dm                Cm                    Bb            Am
E|-13-13-13-13-13-13-13-13-13-13-13-13-13-13-13-13-13-13-13-13-13-13-13-|
B|-13-13-13-13-13-13-13-13-13-13-13-13-13-13-13-13-13-13-13-13-13-13-13-|
G|-13-13-13-13-13-13-13-13-13-13-13-13-13-13-13-13-13-13-13-13-13-13-13-|
D|----------------------------------------------------------------------|
A|----------------------------------------------------------------------|
E|----------------------------------------------------------------------|

   Gm                Fm                    Em           Fm        Gm
E|----------------------------------------------------------------------|
B|----------------------------------------------------------------------|
G|-7~---------------7/5--------------------3~-----------3/5-------------|
D|----------------------------------------------------------------------|
A|----------------------------------------------------------------------|
E|----------------------------------------------------------------------|

   Dm                Cm                    Bb            Am
E|----5--5--5--5---3----3--3--6--5--3--5---10---------------------------|
B|----6--6--6--------------------------------------------10~------------|
G|-7--7--7--7-----------------------------------------------------------|
D|----------------------------------------------------------------------|
A|----------------------------------------------------------------------|
E|----------------------------------------------------------------------|

   Gm                Fm                    Em            Fm  Em  Dm
E|-----------------------------------------10~-----------13--12--10~--|
B|-6~----------------10~----------------------------------------------|
G|--------------------------------------------------------------------|
D|--------------------------------------------------------------------|
A|--------------------------------------------------------------------|
E|--------------------------------------------------------------------|

   Dm                Cm                    Bb            Am             Gm
E|-10-10-10-10-10-10-10-10-10-10-10-10-10-10-10-10-10-10-10-10-10-10-|---3---|
B|-10-10-10-10-10-10-10-10-10-10-10-10-10-10-10-10-10-10-10-10-10-10-|---3---|
G|-10-10-10-10-10-10-10-10-10-10-10-10-10-10-10-10-10-10-10-10-10-10-|---3---|
D|-------------------------------------------------------------------|---5---|
A|-------------------------------------------------------------------|---5---|
E|-------------------------------------------------------------------|---3---|

Clipes