O Grande Inverno da Rússia

Legião Urbana

Am
123
X02210
Bb
234
X13331
Cm
234
X35543
Dm
123
XX0231
Em
12
022000
Fm
34
133111
Gm
34
355333
Tom: G
                 

[Instrumental]

#1t1# [Guitarra c/ Distorção]
   Dm                Cm                    Bb            Am
#1t2#E|----5--5--5--5---3----3--3--6--5--3--5---10--8--6--5---3--5--6--5--3--5--3-|
B|----6--6--6----------------------------------------------------------------|
G|-7--7--7--7----------------------------------------------------------------|
D|---------------------------------------------------------------------------|
A|---------------------------------------------------------------------------|
E|---------------------------------------------------------------------------|#/1t2##/1t1#

#2t1#   Gm                Fm                    Em            Fm        Gm
#2t2#E|----5--5--5--5---3----3--3--6--5--3--5---10--8--6--5---3--5--6--5--3--5--3-|
B|----6--6--6----------------------------------------------------------------|
G|-7--7--7--7----------------------------------------------------------------|
D|---------------------------------------------------------------------------|
A|---------------------------------------------------------------------------|
E|---------------------------------------------------------------------------|#/2t2##/2t1#

#3t1#   Dm                Cm                    Bb            Am
#3t2#E|----5--5--5--5---3----3--3--6--5--3--5---10--8--6--5---3--5--6--5--3--5--3-|
B|----6--6--6----------------------------------------------------------------|
G|-7--7--7--7----------------------------------------------------------------|
D|---------------------------------------------------------------------------|
A|---------------------------------------------------------------------------|
E|---------------------------------------------------------------------------|#/3t2##/3t1#

#4t1#   Gm                Fm                    Em            Fm        Gm
#4t2#E|----5--5--5--5---3----3--3--6--5--3--5---10--8--6--5---3--5--6--5--3--5--3-|
B|----6--6--6----------------------------------------------------------------|
G|-7--7--7--7----------------------------------------------------------------|
D|---------------------------------------------------------------------------|
A|---------------------------------------------------------------------------|
E|---------------------------------------------------------------------------|#/4t2##/4t1#

#5t1#   Dm                Cm                    Bb            Am
#5t2#E|------------------------------------------10~------------------------------|
B|-6~----------------10~---------------------------------10~-----------------|
G|---------------------------------------------------------------------------|
D|---------------------------------------------------------------------------|
A|---------------------------------------------------------------------------|
E|---------------------------------------------------------------------------|#/5t2##/5t1#

#6t1#   Gm                Fm                    Em            Em        Fm
#6t2#E|-----------------------------------------10~-----------12--------13\-------|
B|-6~----------------10~-----------------------------------------------------|
G|---------------------------------------------------------------------------|
D|---------------------------------------------------------------------------|
A|---------------------------------------------------------------------------|
E|---------------------------------------------------------------------------|#/6t2##/6t1#

#7t1#   Dm                Cm                    Bb            Am
#7t2#E|-----------------------------------------10~-------------------------------|
B|-6~----------------10~---------------------------------10~-----------------|
G|---------------------------------------------------------------------------|
D|---------------------------------------------------------------------------|
A|---------------------------------------------------------------------------|
E|---------------------------------------------------------------------------|#/7t2##/7t1#

#8t1#   Gm                Fm                    Em            Em        Fm
#8t2#E|----5--5--5--5---3----3--3--6--5--3--5--------------12-12-12-12--13-13-13---|
B|----6--6--6-----------------------------------------------------------------|
G|-7--7--7--7-----------------------------------------------------------------|
D|----------------------------------------------------------------------------|
A|----------------------------------------------------------------------------|
E|----------------------------------------------------------------------------|#/8t2##/8t1#

#9t1#   Dm                Cm                     Bb             Am    
#9t2#E|-13-13-13-13-13-13-13-13-13-13-13-13-13-13-13-13-13-13-13-13-13-13-13-13-13-|
B|----------------------------------------------------------------------------|
G|----------------------------------------------------------------------------|
D|----------------------------------------------------------------------------|
A|----------------------------------------------------------------------------|
E|----------------------------------------------------------------------------|#/9t2##/9t1#

#10t1#   Gm                Fm                    Em            Fm        Gm
#10t2#E|----5--5--5--5---3----3--3--6--5--3--5---10--8--6--5---3-3-5-5-6-6-5-5-3-3-5-5-3-|4
B|----6--6--6----------------------------------------------------------------------|v
G|-7--7--7--7----------------------------------------------------------------------|e
D|---------------------------------------------------------------------------------|z
A|---------------------------------------------------------------------------------|e
E|---------------------------------------------------------------------------------|s#/10t2##/10t1#

#11t1#   Dm                Cm                    Bb            Am
#11t2#E|---------------------------------------------------------------------------------|
B|--------------------6~--------------------10~-----------13~----------------------|
G|-7~------------------------------------------------------------------------------|
D|---------------------------------------------------------------------------------|
A|---------------------------------------------------------------------------------|
E|---------------------------------------------------------------------------------|#/11t2##/11t1#

#12t1#   Gm                Fm                    Em            Fm        Gm
#12t2#E|---------------------------------------------------------------------------------|
B|-8~~~~---------------------------------------------------------------------------|
G|---------------------------------------------------------------------------------|
D|---------------------------------------------------------------------------------|
A|---------------------------------------------------------------------------------|
E|---------------------------------------------------------------------------------|#/12t2##/12t1#
     >>>>>>>>>>>>>>>>>>>>>>>>>>>>>>>>>>>>>>>>>>>>>>>>>>>>>>>>>>>>>>>>>>>>>>>>>>>>>

#13t1#   Dm                Cm                    Bb            Am
#13t2#E|----5--5--5--5---3----3--3--6--5--3--5---10--8--6--5---3--5--6--5--3--5--3-|
B|----6--6--6----------------------------------------------------------------|
G|-7--7--7--7----------------------------------------------------------------|
D|---------------------------------------------------------------------------|
A|---------------------------------------------------------------------------|
E|---------------------------------------------------------------------------|#/13t2##/13t1#

#14t1#   Gm                Fm                    Em            Fm        Gm
#14t2#E|----5--5--5--5---3----3--3--6--5--3--5---10--8--6--5---3--5--6--5--3--5--3-|
B|----6--6--6----------------------------------------------------------------|
G|-7--7--7--7----------------------------------------------------------------|
D|---------------------------------------------------------------------------|
A|---------------------------------------------------------------------------|
E|---------------------------------------------------------------------------|#/14t2##/14t1#

#15t1#“Nessa parte o teclado repete os dois últimos solos acima junto com o Riffs da Guitarra abaixo"
   Dm                Cm                    Bb            Am
#15t2#E|---------------------------------------------------------------------------------|
B|---------------------------------------------------------------------------------|
G|-7~---------------7/5--------------------3~------------2~------------------------|
D|---------------------------------------------------------------------------------|
A|---------------------------------------------------------------------------------|
E|---------------------------------------------------------------------------------|#/15t2##/15t1#

#16t1#   Gm                Fm                    Em            Fm        Gm
#16t2#E|---------------------------------------------------------------------------------|
B|---------------------------------------------------------------------------------|
G|---------------------------------------------------------------------------------|
D|-5~----------------3~--------------------2~------------3~--------5~--------------|
A|---------------------------------------------------------------------------------|
E|---------------------------------------------------------------------------------|#/16t2##/16t1#

#17t1#   Dm                Cm                    Bb            Am
#17t2#E|-----------------------------------------------------------------------|
B|-----------------------------------------------------------------------|
G|-7-----------------5---------------------3-------------2---------------|
D|-7-----------------5---------------------3-------------2---------------|
A|-5-----------------3---------------------1-------------0---------------|
E|-----------------------------------------------------------------------|#/17t2##/17t1#

#18t1#   Gm                Fm                    Em            Em          Fm
#18t2#E|-------------------------------------------------------12-12-12-12-13-|
B|-------------------------------------------------------12-12-12-12-13-|
G|-------------------------------------------------------12-12-12-12-13-|
D|--5~---------------3~---------------------2~--------------------------|
A|--5~---------------3~---------------------2~--------------------------|
E|--3~---------------1~---------------------0---------------------------|#/18t2##/18t1#

#19t1#   Dm                Cm                    Bb            Am
#19t2#E|-13-13-13-13-13-13-13-13-13-13-13-13-13-13-13-13-13-13-13-13-13-13-13-|
B|-13-13-13-13-13-13-13-13-13-13-13-13-13-13-13-13-13-13-13-13-13-13-13-|
G|-13-13-13-13-13-13-13-13-13-13-13-13-13-13-13-13-13-13-13-13-13-13-13-|
D|----------------------------------------------------------------------|
A|----------------------------------------------------------------------|
E|----------------------------------------------------------------------|#/19t2##/19t1#

#20t1#   Gm                Fm                    Em            Em          Fm
#20t2#E|-13-13-13-13-13-13-13-13-13-13-13-13-13-13-13-13-13-13-13-13-13-13-13-|
B|-13-13-13-13-13-13-13-13-13-13-13-13-13-13-13-13-13-13-13-13-13-13-13-|
G|-13-13-13-13-13-13-13-13-13-13-13-13-13-13-13-13-13-13-13-13-13-13-13-|
D|----------------------------------------------------------------------|
A|----------------------------------------------------------------------|
E|----------------------------------------------------------------------|#/20t2##/20t1#

#21t1#[Solo]
   Dm                Cm                    Bb            Am
#21t2#E|----------------------------------------------------------------------|
B|------------------------------------10--8---10--8----8-8-8--11-8-10~--|
G|-7------------7h9p7-7-------7--7--7-----------------------------------|
D|----------------------------------------------------------------------|
A|----------------------------------------------------------------------|
E|----------------------------------------------------------------------|#/21t2##/21t1#

#22t1#   Gm                Fm                    Em            Fm          Gm
#22t2#E|-------12-10~~--12r---10--12-12r------------------------------------------|
B|-10-10---------------------------------10--8~--------7-9-10----9-10r------|
G|------------------------------------9-----------7-9-----------------------|
D|--------------------------------------------------------------------------|
A|--------------------------------------------------------------------------|
E|--------------------------------------------------------------------------|#/22t2##/22t1#

#23t1#                 Dm                Cm            Bb            Am
#23t2#E|-----------------------------------------------10--8--6--5---3--5--6--5--3--5--3-|
B|-8-10-11-10-8-10r--8--10r---8--10--10--8--10-------------------------------------|
G|---------------------------------------------------------------------------------|
D|---------------------------------------------------------------------------------|
A|---------------------------------------------------------------------------------|
E|---------------------------------------------------------------------------------|#/23t2##/23t1#

#24t1#   Gm                Fm                    Em            Fm        Gm
#24t2#E|----5--5--5--5---3----3--3--6--5--3--5---10--8--6--5---12-12-12-12-13-|
B|----6--6--6--------------------------------------------12-12-12-12-13-|
G|-7--7--7--7--------------------------------------------12-12-12-12-13-|
D|----------------------------------------------------------------------|
A|----------------------------------------------------------------------|
E|----------------------------------------------------------------------|#/24t2##/24t1#

#25t1#   Dm                Cm                    Bb            Am
#25t2#E|-13-13-13-13-13-13-13-13-13-13-13-13-13-13-13-13-13-13-13-13-13-13-13-|
B|-13-13-13-13-13-13-13-13-13-13-13-13-13-13-13-13-13-13-13-13-13-13-13-|
G|-13-13-13-13-13-13-13-13-13-13-13-13-13-13-13-13-13-13-13-13-13-13-13-|
D|----------------------------------------------------------------------|
A|----------------------------------------------------------------------|
E|----------------------------------------------------------------------|#/25t2##/25t1#

#26t1#   Gm                Fm                    Em           Fm        Gm
#26t2#E|----------------------------------------------------------------------|
B|----------------------------------------------------------------------|
G|-7~---------------7/5--------------------3~-----------3/5-------------|
D|----------------------------------------------------------------------|
A|----------------------------------------------------------------------|
E|----------------------------------------------------------------------|#/26t2##/26t1#

#27t1#   Dm                Cm                    Bb            Am
#27t2#E|----5--5--5--5---3----3--3--6--5--3--5---10---------------------------|
B|----6--6--6--------------------------------------------10~------------|
G|-7--7--7--7-----------------------------------------------------------|
D|----------------------------------------------------------------------|
A|----------------------------------------------------------------------|
E|----------------------------------------------------------------------|#/27t2##/27t1#

#28t1#   Gm                Fm                    Em            Fm  Em  Dm
#28t2#E|-----------------------------------------10~-----------13--12--10~--|
B|-6~----------------10~----------------------------------------------|
G|--------------------------------------------------------------------|
D|--------------------------------------------------------------------|
A|--------------------------------------------------------------------|
E|--------------------------------------------------------------------|#/28t2##/28t1#

#29t1#   Dm                Cm                    Bb            Am             Gm
#29t2#E|-10-10-10-10-10-10-10-10-10-10-10-10-10-10-10-10-10-10-10-10-10-10-|---3---|
B|-10-10-10-10-10-10-10-10-10-10-10-10-10-10-10-10-10-10-10-10-10-10-|---3---|
G|-10-10-10-10-10-10-10-10-10-10-10-10-10-10-10-10-10-10-10-10-10-10-|---3---|
D|-------------------------------------------------------------------|---5---|
A|-------------------------------------------------------------------|---5---|
E|-------------------------------------------------------------------|---3---|#/29t2##/29t1#
Composição: Ico Ouro Preto / Marcelo Bonfá / Renato RussoColaboração e revisão: Marcus GomesRenan Santos