O Livro Dos Dias

Legião Urbana

A
123
X02220
B
234
X24442
Bm
234
X24432
C
123
X32010
C#m
234
X46654
D
123
XX0232
E
123
022100
Em
12
022000
F#m
34
244222
G
123
320003
G#m
34
466444
Tom: G
[Intro]  D  Em  F#m  Bm  Em  A  G

    D
Ausente o encanto antes cultivado
   Em
Percebo o mecanismo indiferente
         F#m
Que teima em resgatar sem confiança
        Bm
A essência do delito então sagrado
          Em
Meu coração não quer deixar

Meu corpo descansar
   A
E teu desejo inverso é velho amigo
 G
Já que o tenho sempre a meu lado


#1t1#        D      Em      F#m      Bm      Em      A      G
#1t2#E|------------------------3----|-----------------------------------|
B|--12--10--8--7--3-----5----5-|--12-10-12-10-12-15-13-12-15-13-12-|
G|--------------------4-----4--|-----------------------------------|
D|-----------------------------|-----------------------------------|
A|-----------------------------|-----------------------------------|
E|-----------------------------|-----------------------------------|#/1t2##/1t1#

G                        A
Hoje então aceitas pelo nome
   D
O que perfeito entregas mas é tarde
  C
Só daria certo aos dois que tentam
  Em
Se ainda embriagado pela fome
  A
Exatos teu perdão e tua idade
     G
O indulto a ti tomasse como bênção    


#2t1#        D      Em      F#m      Bm      Em      A      G
#2t2#E|------------------------3----|-----------------------------------|
B|--12--10--8--7--3-----5----5-|--12-10-12-10-12-15-13-12-15-13-12-|
G|--------------------4-----4--|-----------------------------------|
D|-----------------------------|-----------------------------------|
A|-----------------------------|-----------------------------------|
E|-----------------------------|-----------------------------------|#/2t2##/2t1#

        E
Não esconda a tristeza de mim
           F#m
Todos se afastam quando o mundo está errado
                G#m
Quando o que temos é um catálogo de erros
              C#m
Quando precisamos de carinho
Força e cuidado
F#m
Este é o livro das flores
B
Este é o livro do destino
        A
Este é o livro de nossos dias
        E
Este é o dia dos nossos amores


#3t1##3t2#E|--12--11--9--7--12--11--9--7---|
B|-------------------------------|
G|-------------------------------|
D|-------------------------------|
A|-------------------------------|
E|-------------------------------|#/3t2##/3t1#
Composição: Dado Villa-Lobos / Marcelo BonfáColaboração e revisão: GlauberJairo NetoConrad OliveiraKalebe Vieirae mais 2