A
123
X02220
A/C#
1234
X4X255
Bm
234
X24432
D
123
XX0232
Em
12
022000
G
123
320003
Tom: G
#1t1#Introdução
    G
#1t2#E|---------------------------------|
B|-----7------7------7------7------|
G|-----7------7------7------7------|
D|-5-5----5-5----5-5----5-5--------|
A|---------------------------------|
E|---------------------------------|#/1t2##/1t1#

#2t1#RIFF 1
    D                    A
#2t2#E|---------------------------------|
B|---75---5---3---2-2----2--0-2-=--|
G|-----------------------------2---|
D|-7-----5---4---2------2--2---2---|
A|---------------------------------|
E|---------------------------------|#/2t2##/2t1#

#3t1#      G       Em     A     D
#3t2#E|-----7---5---3------5-----5------5------|
B|----------------------------------------|
G|-5/7---6---4----4/6---5/7----7-8---7-7--|
D|----------------------------------------|
A|----------------------------------------|
E|----------------------------------------|#/3t2##/3t1#

(RIFF 1)  2x
       D
Hoje não dá
        A
Hoje não dá
        G
Não sei mais o que dizer
Em      A       D
E nem o que pensar
Hoje não dá
        A
Hoje não dá
               G                A
A maldade humana agora não tem nome
        D
Hoje não dá

#4t1#RIFF 2
    G         A        D    A    Bm
#4t2#E|-----------------------------------------|
B|---3--3------5---5----7----5----3----2---|
G|---4----4------6-------7---------4----2--|
D|-5---------7--------7----7----4----2-----|
A|-----------------------------------------|
E|-----------------------------------------|#/4t2##/4t1#

(RIFF 2) 4x
        G               A
Pegue duas medidas de estupidez
        D       A/C#            Bm
Junte trinta e quatro partes de mentira
        G
Coloque tudo numa forma
   A
Untada previamente
        D       A/C#    Bm
Com promessas não cumpridas
G               A
Adicione a seguir o ódio e a inveja
        D       A/C#    Bm
As dez colheres cheias de burrice
   G            A
Mexa tudo e misture bem
        D       A/C#    Bm
E não se esqueça: antes de levar ao forno

#5t1#RIFF 3
    D    A    Bm
#5t2#E|----------------------|
B|---7----5----3----2---|
G|----7---------4----2--|
D|-7----7----4----2-----|
A|----------------------|
E|----------------------|#/5t2##/5t1#

(RIFF 3) 3x
        D       A/C#    Bm
Temperar com essência de espirito de porco,
        D     A/C#          Bm
Duas xícaras de indiferença
          D   A/C#              Bm
E um tablete e meio de preguiça

(RIFF 1)  2x
        D
Hoje não dá
        A
Hoje não dá
        G              Em
Está um dia tão bonito lá fora
   A             D
E eu quero brincar
Mas hoje não dá
        A
Hoje não dá
        G               Em
Vou consertar a minha asa quebrada
A       D
E descansar

(RIFF 2) 4x
     G       A  D     A/C#     Bm       G
Gostaria de não saber destes crimes atrozes
        A       D    A/C#     Bm      G
É todo dia agora e o que vamos fazer?
        A           D      A/C#  Bm       G
Quero voar p'ra bem longe mas hoje não dá
        A       D     A/C#    Bm     G   A (RIFF 5)
Não sei o que pensar e nem o que dizer

#6t1# (RIFF 4)
  D    A                         G          A
#6t2#E|-----------------|           e|------------------------|
B|---7----5--------|   RIFF 5  B|---3----3-------2---2---|
G|----7-----5-5----|    --->>  G|----4----4----2---------|
D|-7----7---5-5----|           D|-5----4-----2-----2-----|
A|-----------------|           A|------------------------|
E|-----------------|           E|------------------------|#/6t2##/6t1#

(RIFF 4)
D   A/C#   Bm    G     (RIFF 5)
Só nos sobrou do amor
       A          G   A G D
A falta que ficou
#7t1#      A       G     A G   D
#7t2#E|------5----3-3-3-5-3---5--|
B|-----------------------7--|
G|-----------------------7--|
D|-5/7---7---5-5-5-7-5---7--|
A|--------------------------|
E|--------------------------|#/7t2##/7t1#
Composição: Dado Villa-Lobos / Renato RussoColaboração e revisão: Lucas Martoranokerton Souza