busca

Plantas Embaixo do Aquário

Legião Urbana

Tom: C
Intro:(Am C D Am C D F)

Riff da intro e da música
   Am C  D    Am C D   F
E|------------------------|
B|------------------------|
G|----5--7-------5--7--10-|
D|-7--5--7----7--5--7--10-|
A|-7----------7-----------|
E|------------------------|

(Am C D Am C D F)
Aceite o desafio
e provoque o desempate
desarme a armadilha e desmonte 
o desfarce.
Se afaste do abismo
faça do bom-senso a nova ordem;

Riff do refrão
   G        Am
E|------------------|
B|----------1-0-----|
G|--------------2-0-|
D|-5...-------------|
A|-5...-------------|
E|-3...-------------|

G                          Am
Não deixe a guerra começar
G                          Am
Não deixe a guerra começar
G                          Am
Não deixe a guerra começar
G                          Am
Não deixe a guerra começar

(Am C D Am C D F)
Vocalização

G                          Am
Não deixe a guerra começar
G                          Am
Não deixe a guerra começar
G                          Am
Não deixe a guerra começar
G                          Am
Não deixe a guerra começar
G                          Am
Não deixe a guerra começar
G                          Am
Não deixe a guerra começar
G                          Am
Não deixe a guerra começar
G                          Am
Não deixe a guerra começar

Solo.
    7x
E|-------|-----------|
B|-------|-----------|
G|-----9-|-----9-9-9-|3x
D|-7-7-9-|-7-7-9-9-9-|
A|-7-7---|-7-7-------|
E|-------|-----------|

(Am C D Am C D F)
Pense só um pouco
Não há nada de novo
Você vive insatisfeito e não confia em ninguém
E não acredita em nada
E agora é só cansaço e falta de vontade
Mas faça do bom-senso a nova ordem

G                          Am
Não deixe a guerra começar
G                          Am
Não deixe a guerra começar

Clipes