busca

Será

Legião Urbana

Intro 2x
G|----------------------------|
D|---5------------------------|
A|-3---3----5------7------3---|
E|--------3---3--5---5--1---1-|

Tema
"tire suas mãos..."
G|-----------------------------|
D|-----------------------------|
A|-3(10x)----------------------|3x
E|--------3(10x)-5(10x)-1(10x)-|

"você pode até duvidar..."     
G|-----------------------------|
D|-------------------------5---|
A|---7-----2------3------5-----|1x
E|-5---5-0---0--1---1--3-------|

G|---------|
D|----3-5--|4x bem pausado encaixando com o compasso
A|-3-------|
E|---------|

Refrão     4x
G|-----------------------------|
D|-----------------------------|
A|---------3h5-55-55-3h5-55-55-|
E|--3(10x)---------------------|

Pós Refrão ("vencê êê êr...vocalização:uôÔôôÔô...)
G|----------------------------------------------|
D|----------------------------------------------|
A|--------------------2~-3~--------1~-----------|1x
E|-5-55-55-5-55-55-5~--------1~-3-----3---------|

Ponte b: 4x (recomendo ouvir este trecho melhor...) 
G|---------|
D|-----3-5-|
A|--3------|
E|---------|

Repete desde o início e depois (na segunda parte não toca a ponte b):

"brigar..." 2x                    1x (e fim)
G|-------------------------------|--------------------------|
D|-------------------------------|--------------------------|
A|--3(10x)-2(10x)-1(10x)-5(10x)--|--------------------------|
E|-------------------------------|---33-1-33-1-33-1~--------|

Clipes