Só Por Hoje

Legião Urbana

A
123
X02220
A5
12
X022XX
Am
123
X02210
Am7
12
X02010
B
234
X24442
B5
134
X244XX
Bb5
134
X133XX
Bm
234
X24432
C
123
X32010
D
123
XX0232
Em
12
022000
F
234
133211
G
123
320003
G/B
123
X20033
Tom: G
Intro: Am7 D G C F D Em G

#1t1#     Am7        D              G         C               F
#1t2#E|-----------|-------2-----|---------|--------0-----|--------0--|
B|-------1-0-|---3-----3---|---3s---1|---1------1---|---1------1|
G|---0-------|-------------|---------|------------0-|-----------|
D|-----2-----|4----------4-|-5----3--|-2----2-------|-3----2----|
A|-0---------|-------------|---------|--------------|-----------|
E|-----------|-------------|---------|--------------|-----------|#/1t2##/1t1#
#2t1#    D                Em          G
#2t2#E|--------0-----|------0---2|--3----3----|
B|---3------3---|------0---0|--3--3---3--|
G|------2-----2-|------0---0|------------|
D|0-------------|-----------|------------|
A|--------------|-----------|------------|
E|--------------|--0--------|--3---------|#/2t2##/2t1#

Am      D          G
Só por hoje eu não quero mais 
          C
        chorar
F        D      Em           G
Só por hoje eu espero conseguir 
Am   D            G            C
Aceitar o que passou e o que virá 
F          D            Em
Só por hoje vou me lembrar 
                   G
        que sou feliz 
#3t1#     D         Am
#3t2#E|-7--7-7-7--5-5-5-5-|
B|-7--7-7-7--5-5-5-5-|
G|-7--7-7-7--5-5-5-5-|  4x
D|-------------------|
A|-------------------|
E|-------------------|#/3t2##/3t1#

G
Hoje já sei quem sou  
             Am
        tudo que preciso ser 
Bm                        F
Não preciso me desculpar e 
                        D
        nem te convencer
       Em       A
O mundo é radical 
C
Não sei onde estou indo 
     G/B
Só sei que não estou perdido 
C                D
Aprendi a viver um dia 
        de cada vez 


Am      D           G
Só por hoje eu não vou me 
              C
        machucar 
F         D           Em
Só por hoje eu não quero me 
               G
        esquecer 
Am                 D
Que há algumas pouco 
              G        C
        vinte quatro horas 
F       D           Em
Quase joguei minha vida 
                  G    (G   B5 Bb5)
        inteira fora 
 (Em  Bb5 A5 )
Não não não não 
Viver é uma dádiva fatal 
No fim das contas ninguém 
        sai vivo daqui mas 
Vamos com calma  !
Am      D         G
Só por hoje eu não quero mais
           C
          chorar 
F         D        Em
Só por hoje eu não vou me 
               G
        destruir 
Am      D          G
Posso até ficar triste 
                    C
        se eu quiser 
   F     D             Em
É só por hoje, ao menos isso 
             G
         eu aprendi       Yeah


       Am     B  C          Am    B  C      Am     B  C     D  G  C  G
             2X
#4t1##4t2#E|-----------------------|-------------------------------------------|
B|-----------------------|-------------------------------------------|
G|-----------------------|-------------------------------------------|
D|-----------------------|-------------------------------------------|
A|---777xx--9-10-10xx-10-|-777xx--9-10-10xx---12--12---5-5--10-9-7-5-|
E|---555xx--7-8-8--xx-8--|-555xx--7-8---8xx---10--10---3-3--8--7-5-3-|#/4t2##/4t1#

#5t1#Fim
    D         Am
#5t2#E|-7--7-7-7--5-5-5-5-|
B|-7--7-7-7--5-5-5-5-|
G|-7--7-7-7--5-5-5-5-|  
D|-------------------|
A|-------------------|
E|-------------------|#/5t2##/5t1#

#6t1##6t2#E|-7--7-7-7-7--8--8-8-8-7--------7--7-7-7-7--10--10-10-10-8-7----|
B|------------------------10--8-------------------------------10-|
G|---------------------------------------------------------------|
D|---------------------------------------------------------------|
A|---------------------------------------------------------------|
E|---------------------------------------------------------------|#/6t2##/6t1#
Composição: Dado Villa-Lobos / Renato RussoColaboração e revisão: GabrielCarlos Parcekiankerton Souza