Ab
234
431114
B
234
X24442
Bb
234
X13331
Cm
234
X35543
Tom: G
Introd.: (Cm Bb)

1ª parte
Guitarra:Antes do teclado aparece essa guitarra.
(Obs:Abafar na 3ª casa)
#1t1##1t2#E|-----------------------------|
B|-10s11~---------11-----------|
G|-------------10---------(x)--|
D|-----------------------------|
A|-----------------------------|
E|-----------------------------|#/1t2##/1t1#

#2t1#(Obs: O Cm e o Bb devem ser feitos assim.)
     Cm   Bb
#2t2#E|----|---|
B|-11-|-3-|
G|-10-|-3-|#/2t2##/2t1#

                                     Finalzinho do teclado. essas partes passam
                  
#3t1#Teclado da intro.                    Quase despercebidas,mas fica legal.
#3t2#E|-6-6-6-6-6-6-6-6--------------|   E|------------|
B|-----------------5-8---6------|   B|------------|
G|---------------------5-----7--|2x G|--7-8-10-8--|
D|-------------------------5----|   D|------------|
A|------------------------------|   A|------------|
E|------------------------------|   E|------------|#/3t2##/3t1#

obs:O baixo fica assim por quase toda a musica.
Contra Baixo.
#4t1##4t2#|-------------------------------------------------------------|
|-------------------------------------------------------------|14x
|-3-3-3-3-3-3-3-3-3-3-3-3-3-3-0-1-1-1-1-1-1-1-1-1-1-1-1-1-1-0-|
|-------------------------------------------------------------|#/4t2##/4t1#

Guitarra:Em alguns pontos da música aparece esses riffs da guitarra
Guitarra 1      Guitarra 2
#5t1##5t2#E|---------|    E|----------| 
B|---4-3---|    B|----------|
G|-3-----5-|    G|---8-7----|
D|-3-----5-|    D|-8-----10-|
A|-1-----3-|    A|-8-----10-|
E|---------|    E|-6-----8--|#/5t2##/5t1#

 Cm
Nossas meninas estão longe daqui 
      Bb
Não temos com quem chorar e nem pra onde ir
Cm
Se lembra quando era só brincadeira
Bb                                Cm
Fingir de ser soldado a tarde inteira?

Teclado:Nessa parte na versão original não tem esse teclado, mas CD
(Música p/ Acampamento) tem. Então é legal fazer essa parte pra não ficar
tipo "um buraco" na música.
#6t1#     Cm                      Bb
#6t2#E|-6-6-6-6-6-6-6-6--------------|   E|------------|
B|-----------------5-8---6------|   B|------------|
G|---------------------5-----7--|2x G|--7-8-10-8--|
D|-------------------------5----|   D|------------|
A|------------------------------|   A|------------|
E|------------------------------|   E|------------|#/6t2##/6t1#

       Cm
Mas agora a coragem que temos no coração
        Bb
Parece medo da morte mas não era então
      Cm
Tenho medo de lhe dizer o que eu quero tanto
      Bb
Tenho medo e eu sei porquê:
                  (Cm Bb)
Estamos esperando

#7t1#Teclado: 
#7t2#E|-6-6-6-6-6-6-6-6--------------|   E|------------|
B|-----------------5-8---6------|   B|------------|
G|---------------------5-----7--|2x G|--7-8-10-8--|
D|-------------------------5----|   D|------------|
A|------------------------------|   A|------------|
E|------------------------------|   E|------------|#/7t2##/7t1#

   Cm             Bb
Quem é o inimigo? Quem é você?
   Cm             Bb
Quem é o inimigo? Quem é você?
   Cm             Bb
Quem é o inimigo? Quem é você?
   Cm             Bb
Quem é o inimigo? Quem é você?

    Cm                               Bb
Nos defendemos tanto tanto sem saber
   Cm Bb      Ab B Bb
Porque  lutar oooo . . .
   
Dica:Se vc estiver tocando com alguém, vcs podem escolher 
fazer o teclado e uma das guitarras ou fazer as duas guitarras.
Obs: Nessa música não existe 2 guitarras, mas pode tocar com 2 que fica legal

#8t1#Teclado:Ele começa assim e depois muda
#8t2#E|---6----6----6----6--6-6--6-6--6-6--6-6---6----6----6----6--6-6--6-6--6-6--6-6-|
B|-6----6----6----6-----------------------6----6----6----6-----------------------|
G|-------------------------------------------------------------------------------|
D|-------------------------------------------------------------------------------|
A|-------------------------------------------------------------------------------|
E|-------------------------------------------------------------------------------|#/8t2##/8t1#

#9t1#Teclado:Agora é a hora que ele muda.
#9t2#E|---6----6----6----6--6-6--6-6--6-6--6-6---6----6----6----6--6-6--6-6--6-6-|
B|-9----9----9----9-----------------------9----9----9----9------------------|
G|--------------------------------------------------------------------------|
D|--------------------------------------------------------------------------|
A|--------------------------------------------------------------------------|
E|--------------------------------------------------------------------------|#/9t2##/9t1#

#10t1#Guitarra 1
        (Ab)           (B)                (Bb)
#10t2#E|-------------|-----------|-------------------------------|
B|-------------|-----------|-------------------------------|
G|-------------|-----------|-------------------------------|
D|-6-6-6-6-6-6-|-9-9-9-9-9-|-8-8-8-8-8-8-8-8-8-8-8-8-8-8-8-|
A|-6-6-6-6-6-6-|-9-9-9-9-9-|-8-8-8-8-8-8-8-8-8-8-8-8-8-8-8-|
E|-4-4-4-4-4-4-|-7-7-7-7-7-|-6-6-6-6-6-6-6-6-6-6-6-6-6-6-6-|#/10t2##/10t1#
 
#11t1#Guitarra 2
        (Ab)           (B)                (Bb)
#11t2#E|-------------|-----------|-------------------------------|
B|-------------|-----------|-------------------------------| 
G|-------------|-4-4-4-4-4-|-3-3-3-3-3-3-3-3-3-3-3-3-3-3-3-| 4x
D|-6-6-6-6-6-6-|-4-4-4-4-4-|-3-3-3-3-3-3-3-3-3-3-3-3-3-3-3-|
A|-6-6-6-6-6-6-|-2-2-2-2-2-|-1-1-1-1-1-1-1-1-1-1-1-1-1-1-1-|
E|-4-4-4-4-4-4-|-----------|-------------------------------|#/11t2##/11t1#
        

2ª parte
Contra Baixo.
#12t1##12t2#|-------------------------------------------------------------| 
|-------------------------------------------------------------|14x
|-3-3-3-3-3-3-3-3-3-3-3-3-3-3-0-1-1-1-1-1-1-1-1-1-1-1-1-1-1-0-|
|-------------------------------------------------------------|#/12t2##/12t1#

#13t1#Teclado: 
#13t2#E|-6-6-6-6-6-6-6-6--------------|   E|-------------|
B|-----------------5-8---6------|   B|-------------|
G|---------------------5-----7--|1x G|-7-8-7-5---5-|
D|-------------------------5----|   D|---------8---|
A|------------------------------|   A|-------------|
E|------------------------------|   E|-------------|#/13t2##/13t1#
 
Cm
Nossas meninas estão longe daqui
Bb
E de repente eu vi você cair
Cm
Não sei armar o que eu senti
Bb
Não sei dizer que vi você ali
Cm
Quem vai saber o que você sentiu?
Bb
Quem vai saber o que você pensou?
Cm
Quem vai dizer agora o que eu não fiz
Bb
Com explicar pra você o que eu quis
Cm             Bb Cm               Bb
Somos soldados     pedindo esmola

#14t1#Teclado.
#14t2#E|--6-6-6-6-6-6-6-6-------------|   
B|------------------5-8---6-----|   
G|----------------------5-----7-|2x até (e a gente não queria lutar...)
D|--------------------------5---|   
A|------------------------------|   
E|------------------------------|   #/14t2##/14t1#
 
Cm                         Bb
E a gente não queria lutar e a gente não queria lutar
Cm                         Bb
E a gente não queria lutar e a gente não queria lutar ...

Teclado do final:
Isso repete até o final.         E finaliza assim.
#15t1##15t2#E|--------6-------6-------6...-|--------6-------6-6--|
B|--6---6---6---6---6---6...---|--6---6---6---6------|
G|----5-------5-------5...-----|----5-------5--------|
D|-----------------------------|---------------------|
A|-----------------------------|---------------------|
E|-----------------------------|---------------------|#/15t2##/15t1#

#16t1#(Nesta parte fica a dica do teclado e guitarra ou 2 guitarras)
        (Ab)           (B)                 (Bb)                    (Bb)
#16t2#E|-------------|-----------|-------------------------------|   E|-----|
B|-------------|-----------|-------------------------------|   B|-----|
G|-------------|-----------|-------------------------------|   G|-----|
D|-6-6-6-6-6-6-|-9-9-9-9-9-|-8-8-8-8-8-8-8-8-8-8-8-8-8-8-8-|4x D|-8-8-|
A|-6-6-6-6-6-6-|-9-9-9-9-9-|-8-8-8-8-8-8-8-8-8-8-8-8-8-8-8-|   A|-8-8-|
E|-4-4-4-4-4-4-|-7-7-7-7-7-|-6-6-6-6-6-6-6-6-6-6-6-6-6-6-6-|   E|-6-6-|#/16t2##/16t1#

#17t1#        (Ab)           (B)                  (Bb)                   (Bb)
#17t2#E|-------------|-----------|-------------------------------|   E|-----|
B|-------------|-----------|-------------------------------|   B|-----|
G|-------------|-4-4-4-4-4-|-3-3-3-3-3-3-3-3-3-3-3-3-3-3-3-|4x G|-3-3-|(335543) ->(x355xx) ->
D|-6-6-6-6-6-6-|-4-4-4-4-4-|-3-3-3-3-3-3-3-3-3-3-3-3-3-3-3-|   D|-3-3-|
A|-6-6-6-6-6-6-|-2-2-2-2-2-|-1-1-1-1-1-1-1-1-1-1-1-1-1-1-1-|   A|-1-1-|
E|-4-4-4-4-4-4-|-----------|-------------------------------|   E|-----|#/17t2##/17t1#
Composição: Marcelo Bonfá / Renato RussoColaboração e revisão: Pauloluan bergJoão RuncoDanilo Briscese