Tempo Perdido

Legião Urbana

Am7
12
X02010
Bm
234
X24432
Bm7
34
X24232
C
123
X32010
C7M
12
X3200X
D5
134
X577XX
E5
12
022XXX
Em
12
022000
Tom: G
[Intro] Em  C  Am7  Bm  Em


    C7M
E|------------------------------
B|------12-------12-------12----
G|---12-------12-------12-------
D|10-------10-------10-------10-
A|------------------------------
E|------------------------------

E|-----------| 
B|---12------| 
G|12---------| 
D|-----------| 
A|-----------| 
E|-----------| 



    Am7                        
E|--------------------------------
B|----8-----8------8------8-------
G|--9-----9------9------9------11-
D|7-----7------7------7------9----
A|--------------------------------
E|--------------------------------
  Bm7
E|---------| 
B|10-----10| 
G|-----11--| 
D|---9-----| 
A|---------| 
E|---------| 



                    E5
E|-------------------------------
B|-----10------10----------------
G|--11------11-----------9-----9-
D|9-------9------------9---9-----
A|------------------7--------7---
E|----------------0--------------

E|----------| 
B|----------| 
G|----9-----| 
D|9-----9---| 
A|--7-------| 
E|----------| 



    D5
E|--------------------------------
B|--------------------------------
G|--7-----------------------------
D|----7---------------------------
A|5-------------------------------
E|--------------------------------


          C                 Am7
Todos os dias quando acordo
Bm                    Em
    Não tenho mais o tempo que 
passou
           C          Am7
Mas tenho muito tempo
       Bm              Em
Temos todo o tempo do mundo
C               Am7
  Todos os dias antes de dormir
 Bm                          Em
Lembro e esqueço como foi o dia
 C               Am7
Sempre em frente
     Bm               Em
Não temos tempo a perder
        C          Am7
Nosso suor sagrado
            Bm
É bem mais belo que esse
         Em
Sangue amargo
C Am7 E tão sério Bm Em E selva____gem Bm Em E selva____gem Bm (passagem) E selva____gem C Am7 Bm Veja o sol dessa manhã tão cinza Em C A tempestade que chega é da cor Am7 Dos teus olhos Bm Em Casta_____nhos C Am7 Então me abraça forte Bm E diz mais uma vez Em C Am7 Que já estamos distantes de tudo Bm Em Temos nosso próprio tempo Bm Em Temos nosso próprio tempo Bm Em Temos nosso próprio tempo C Am7 Bm Não tenho medo do escuro Em C Am7 Mas deixe as luzes acesas Bm Em Ago_____ra C Am7 O que foi escondido é o que se escondeu Bm E o que foi prometido Em Ninguém prometeu C Am7 Nem foi tempo perdido Bm Em Somos tão jo_____vens Bm Em Bm Tão jo_____vens tão jovens (passagem) [Estrofe] C Am7 E|------------------------------- B|------1-1-1---0-1--------1----- G|----0------------------0---0--- D|--2---------2--------2--------- A|3------------------0----------- E|------------------------------- E|----------| B|3-----1---| G|--0-----0-| D|----2----2| A|----------| E|----------| Bm7 Em E|-------------------------------- B|------0-3-----1-----------0----- G|----2----2------2-----------0-0- D|--0--------0------0-----2------- A|2-------------------2----------- E|----------------------0--------- E|2----3---| B|--0----0-| G|---0----0| D|---------| A|---------| E|---------| [Variação] Am7 E|-------------------------------- B|------1---------3--------------- G|----0---0-----0---0------------- D|--2-------2/4------------------- A|0------------------------------- E|-------------------------------- [Passagem] H.N. . . . . E|-------------------------------- B|----12----------7--------------- G|----12--------7---7------------- D|----12------7------------------- A|-------------------------------- E|0-------------------------------
Composição: Renato RussoColaboração e revisão: Leandro SandimGustavo CunhaAlex SaltariMárcio (Susuno)e mais 8
Videoaula Tempo Perdido (aula de violão completa)