Vento No Litoral

Legião Urbana

A
123
X02220
A4
123
X02230
A7
12
X02020
A7(4)
12
X02030
Am
123
X02210
Bb9
34
X13311
C
123
X32010
Cm
234
X35543
Dm
123
XX0231
Dm/C
1234
X3X231
E
123
022100
E4
123
022200
Em
12
022000
F
234
133211
G
123
320003
G/B
123
X20033
Gm/Bb
1234
6553XX
Tom: G
[Intro] Am  Em  Am  Em
        F   C  F   C

[Parte 1 de 5]


E|--------------------------------
B|---5---3---1-----12----10---8---
G|--------------------------------
D|-5---4---2----12----10----9-----
A|--------------------------------
E|--------------------------------

E|----------|      
B|----------|      
G|----------|      
D|----------| (2x) 
A|----------|      
E|----------|      


[Parte 2 de 5]


E|--------------------------------
B|---6---5---3----5---3---1-------
G|--------------------------------
D|-7---5---3----5---3---2---------
A|--------------------------------
E|--------------------------------

E|----------|      
B|----------|      
G|----------| (2x) 
D|----------|      
A|----------|      
E|----------|      


[Parte 3 de 5] (repete parte 1)


E|--------------------------------
B|---5---3---1-----12----10---8---
G|--------------------------------
D|-5---4---2----12----10----9-----
A|--------------------------------
E|--------------------------------

E|----------|      
B|----------|      
G|----------| (2x) 
D|----------|      
A|----------|      
E|----------|      


[Parte 4 de 5]


E|-------------------------------
B|---5---3---1----6---5---3----5-
G|-------------------------------
D|-5---3---2----8---7---5----7---
A|-------------------------------
E|-------------------------------

E|-----------|      
B|--3---1----|      
G|-----------| (2x) 
D|5---2------|      
A|-----------|      
E|-----------|      


[Parte 5 de 5]


                         Am
E|-------------------------------
B|-0h1-----1-3---0----1--0h1-----
G|-------0---------0--2--------0-
D|-----0-------0------2------0---
A|--------------------0----------
E|-------------------------------

E|-----------|  
B|1-3---0----|  
G|--------0--|  
D|----0------|  
A|-----------|  
E|-----------|  


[Primeira Parte]

    Am
De tarde quero descansar
  Em
Chegar até a praia e ver
      Am
Se o vento ainda está forte e vai
     Em
Ser bom subir nas pedras sei
     C
Que faço isso pra esquecer
    Bb9
Eu deixo a onda me acertar
     Am                       F
E o vento vai levando tudo embora

( G  Am  F  G )

[Segunda Parte]

[Parte 1 de 9]


      C             F
E|-------------------------------
B|-1-------1---------------1-----
G|-0-----0-------0-------2-------
D|-2---2-------2---2---3-------3-
A|-3---------3-------------------
E|------------------1-------1----

E|-----------| 
B|-----------| 
G|2----------| 
D|--3--------| 
A|-----------| 
E|-----------| 


[Parte 2 de 9]


   Em               Dm
E|------------------------1-------
B|-------0--------------3-------3-
G|-----0-------0------2-------2---
D|---2-------2---2--0-------0-----
A|--------------------------------
E|-0-------0----------------------

E|----------| 
B|----------| 
G|2---------| 
D|----------| 
A|----------| 
E|----------| 


[Parte 3 de 9](Passagem)


               F              
E|-------------------------------
B|-0---1---3-0-------1-----------
G|---0---0---------2-------2-----
D|---------------3-------3---3---
A|-----0---2---------------------
E|-3-----------1-------1-------0-
  Em
E|-----------| 
B|----0------| 
G|--0--------| 
D|2----------| 
A|-----------| 
E|-----------| 


[Parte 4 de 9]


           Dm             Bb9
E|---------------1---------------
B|-------------3-------3---------
G|-----0-----2-------2---2-----3-
D|---2---2-0-------0---------3---
A|-------------------------1-----
E|-0-----------------------------

E|-----------| 
B|1----------| 
G|------3----| 
D|----3---3--| 
A|--1--------| 
E|-----------| 


[Parte 5 de 9]


   Am
E|--------------------------------
B|-------1------------------------
G|-----0--------------------------
D|---2-------2--------------------
A|-0-------0----------------------
E|--------------------------------


[Parte 6 de 9]


                     Am
E|-------------------------------
B|-0h1-----1-3---0----1--0h1-----
G|-------0---------0--2--------0-
D|-----0-------0------2------0---
A|--------------------0----------
E|-------------------------------

E|-----------| 
B|1-3---0----| 
G|--------0--| 
D|----0------| 
A|-----------| 
E|-----------| 


[Parte 7 de 9] [Solo]


E|----12----10---8---7---5---3----
B|--------------------------------
G|-12----11----9---7---5---4------
D|--------------------------------
A|--------------------------------
E|--------------------------------


[Parte 8 de 9] E|------------------------------- B|---5---3---1----6---5---3----5- G|------------------------------- D|-5---3---2----8---7---5----7--- A|------------------------------- E|------------------------------- E|-----------| B|--3---1----| G|-----------| D|5---2------| A|-----------| E|-----------| [Parte 9 de 9] Am E|------------------------------- B|-0h1-----1-3---0----1--0h1----- G|-------0---------0--2--------0- D|-----0-------0------2------0--- A|--------------------0---------- E|------------------------------- E|-----------| B|1-3---0----| G|--------0--| D|----0------| A|-----------| E|-----------| C F Em Agora está tão longe ver Dm A linha do horizonte me distrai G Am G/B Dos nossos planos é que tenho F mais saudade Em Quando olhávamos juntos na mesma Dm direção Bb9 Aonde está você agora além de aqui, Am dentro de mim? ( F G Am F G Am Em Am Em ) ( C Bb9 ) ( Am F G ) ( Am F G ) [Terceira Parte] [Parte 1 de 9] Cm G/B E|------------------------------- B|-4-----4---------3-----3------- G|-----5-------5-------0-------0- D|---5-------5---5---0-------0--- A|-3---3---3---3---2---2---2---2- E|------------------------------- E|-----------| B|-----------| G|-----------| D|0----------| A|-----------| E|-----------| [Parte 2 de 9] Gm/Bb E|-------------------------------- B|-3-----3------------------------ G|-----0-------0------------------ D|---0-------0---0---------------- A|-1---1---1---1------------------ E|-------------------------------- [Parte 3 de 9] A4 A A4 Dm E|---------------0-1-----1------- B|-3-----3-2---3-------3-------3- G|-----2-----2-------2-------2--- D|---2-------------0-------0----- A|-0---0---0---0----------------- E|------------------------------- E|-----------| B|-----------| G|2----------| D|-----------| A|-----------| E|-----------| [Parte 4 de 9] C G/B Am E|-------------------------------- B|-------1----------------3------- G|-----0-------0--------0-------2- D|---2-------2---2----0-------2--- A|-3-------3--------2-------0----- E|-------------------------------- G E|----------| B|--------3-| G|------0---| D|2---0-----| A|----------| E|--3-------| [Parte 5 de 9] F Em A7 E|------------------------------- B|---------------0--------------- G|-----2-------0-------0-------0- D|---3---3---2-------2---2---2--- A|-------------------------0----- E|-1-------0-------0------------- E|-----------| B|2----------| G|------0----| D|----2---2--| A|--0--------| E|-----------| [Parte 6 de 9] Dm Dm/C E|-------1---------------1------- B|-----3-------3-------3-------3- G|---2-------2---2---2-------2--- D|-0-------0--------------------- A|-----------------3-------3----- E|------------------------------- E|-----------| B|-----------| G|2----------| D|-----------| A|-----------| E|-----------| [Parte 7 de 9] Bb9 G E|-------------------------------- B|-------1----------------3------- G|-----3-------3--------0-------0- D|---3-------3---3----0-------0--- A|-1-------1---------------------- E|------------------3-------3----- E|----------| B|----------| G|----------| D|0---------| A|----------| E|----------| [Parte 8 de 9] C F E|-------------------------------- B|-------1----------------1------- G|-----0-------0--------2-------2- D|---2-------2---2----3-------3--- A|-3-------3---------------------- E|------------------1-------1----- E|----------| B|----------| G|----------| D|3---------| A|----------| E|----------| Bb9 G E|------------------------------- B|-------1---------------3------- G|-----3-------3-------0-------0- D|---3-------3---3---0-------0--- A|-1-------1--------------------- E|-----------------3-------0----- E|-----------| B|-----------| G|-----------| D|0----------| A|-----------| E|-----------| Cm Agimos certo sem querer G/B Foi só o tempo que errou Gm/Bb Vai ser difícil sem você A7(4) A7 Dm Porque você está comigo o tempo todo Quando vejo o mar C Existe algo que diz G/B Am G A vida continua e se entregar é F uma bobagem Em A7 Dm Já que você não está aqui Dm/C Bb9 G O que posso fazer é cuidar de mim C F Quero ser feliz ao menos Bb9 G Lembra que o plano era ficarmos bem? [Quarta Parte] [Parte 1 de 9] E|----12----10---8---7---5---3---- B|-------------------------------- G|-12----11----9---7---5---4------ D|-------------------------------- A|-------------------------------- E|-------------------------------- [Parte 2 de 9] E|----12----10---8---7---5-------- B|-------------------------------- G|-12----11----9---7---5---------- D|-------------------------------- A|-------------------------------- E|-------------------------------- [Parte 3 de 9] (Passagem) E|-------------------------------- B|-0---1---3-0-------------------- G|---0---0------------------------ D|-------------------------------- A|-----0---2---------------------- E|-3------------------------------ [Parte 4 de 9] C F E|-------------------------------- B|-------1----------------1------- G|-----0-------0--------2-------2- D|---2-------2---2----3-------3--- A|-3-------3---------------------- E|------------------1-------1----- E|----------| B|----------| G|----------| D|3---------| A|----------| E|----------| [Parte 5 de 9] E4 E E|-------------------------------- B|-------------------------------- G|-------2----------------1------- D|-----2-------2--------2-------2- A|---2-------2---2----2-------2--- E|-0-------0--------0-------0----- E|----------| B|----------| G|----------| D|----------| A|2---------| E|----------| [Parte 6 de 9] (Parte 1 da Intro) E|-------------------------------- B|---5---3---1-----12----10---8--- G|-------------------------------- D|-5---4---2----12----10----9----- A|-------------------------------- E|-------------------------------- E|----------| B|----------| G|----------| (2x) D|----------| A|----------| E|----------| [Parte 7 de 9] (Parte 4 da Intro) E|------------------------------- B|---5---3---1----6---5---3----5- G|------------------------------- D|-5---3---2----8---7---5----7--- A|------------------------------- E|------------------------------- E|-----------| B|--3---1----| G|-----------| D|5---2------| A|-----------| E|-----------| [Parte 8 de 9] (Parte 5 da Intro) C E|-------------------------------- B|-0h1-----1-3---0----1----------- G|-------0---------0--0----------- D|-----0-------0------2----------- A|--------------------3----------- E|-------------------------------- [Parte 9 de 9] (parte 2 da Intro) E|-------------------------------- B|---6---5---3----5---3---1------- G|-------------------------------- D|-7---5---3----5---3---2--------- A|-------------------------------- E|-------------------------------- E|----------| B|----------| G|----------| (2x) D|----------| A|----------| E|----------| Am Em Am Ei, olha só o que eu achei ( G Am G/B ) C F E4 E Cavalos-marinhos ( Am Em ) ( Am Em ) C Sei que faço isso pra esquecer Bb9 Eu deixo a onda me acertar Am F E o vento vai levando tudo embora [Final] G Am F G C F C
Composição: Dado Villa-Lobos / Marcelo Bonfá / Renato RussoColaboração e revisão: Gustavo CunhaGetúlio VasconcelosTiago RenneFranklin Costae mais 11
Videoaula Vento No Litoral (aula de violão completa)