One More Light

Linkin Park

C7M(6)
13
X3X005
D4(6)
12
X5X005
Em
12
X7X007
G
13
XX5007
G/A
1
5XX00X
G/F#
134
XX4707
Tom: G
[Intro 2x] Em  C7M(6)  G  G/F#

#1t1#[Dedilhado Introdução]

Parte 1
   Em              C7M(6)
#1t2#E|---7---7---7---7---5---5---5---5----------|
B|---0---0---0---0---0---0---0---0----------|
G|---0---0---0---0---0---0---0---0----------|
D|------------------------------------------|
A|-7---7---7---7---3---3---3---3------------|
E|------------------------------------------|#/1t2##/1t1#

#2t1#Parte 2
   G                       G/F#
#2t2#E|---7---7---7---7---7---7---7---7----------|
B|---0---0---0---0---0---0---0---0----------|
G|---0---0---0---0---0---0---0---0----------|
D|-5---5---5---5---5---5---4---4------------|
A|------------------------------------------|
E|------------------------------------------|#/2t2##/2t1#

#3t1#Parte 1
   Em              C7M(6)
#3t2#E|---7---7---7---7---5---5---5---5----------|
B|---0---0---0---0---0---0---0---0----------|
G|---0---0---0---0---0---0---0---0----------|
D|------------------------------------------|
A|-7---7---7---7---3---3---3---3------------|
E|------------------------------------------|#/3t2##/3t1#

#4t1#Parte 3
   G                       G/F#
#4t2#E|---7---7---7-------7---7---7---7----------|
B|---0---0---0-------0---0---0---0----------|
G|---0---0---0-0-7---7---7---7---7----------|
D|-5---5---5---5---5---5---4---4------------|
A|------------------------------------------|
E|------------------------------------------|#/4t2##/4t1#

[Primeira Parte]

            Em
Should've stayed
            C7M(6)    G     G/F#
Were there signs I ignored? 
       Em              C7M(6)  G    G/F#
Can I help you not to hurt anymore?
         Em
We saw brilliance 
          C7M(6)      G   G/F#
When the world was asleep
            Em                C7M(6)
There are things that we can have
           D4(6)
But can't keep if they say

[Refrão]

                       Em
Who cares if one more light goes out?
         C7M(6)           G
In the sky of a million stars

It flickers, flickers
     G/F#                 Em
Who cares when someone's time runs out?
      C7M(6)          G
If a moment is all we are

We're quicker, quicker
     G/F#              Em
Who cares if one more light goes out?
      G/A  G  G/F#
Well, I   do

[Variação do dedilhado do Refrão]

#5t1#Parte 1
   Em              G/A
#5t2#E|---7---7---7---7--------------------------|
B|---0---0---0---0---0---0---0--------------|
G|---0---0---0---0---0---0---0--------------|
D|------------------------------------------|
A|-7---7---7---7----------------------------|
E|-----------------5---5---5----------------|#/5t2##/5t1#

#6t1#Parte 2
      G                    G/F#
#6t2#E|------------------------------------------|
B|---0---0---0---0---0---0---0---0----------|
G|---0---0---0---0---0---0---0---0----------|
D|------------------------------------------|
A|------------------------------------------|
E|-3---3---3---3---3---3---2---2------------| #/6t2##/6t1#

[Segunda Parte]

       Em                C7M(6)
The reminders pull the floor 
           G   G/F#
From your feet
        Em                 C7M(6)
In the kitchen, one more chair 
          G       G/F#
Than you need, oh
           Em               C7M(6)
And you're angry, and you should be
          G
It's not fair
       G/F#            Em
Just 'cause you can't see it 
         C7M(6)         D4(6)
Doesn't mean it isn't there if they say

[Refrão]

                       Em
Who cares if one more light goes out?
         C7M(6)           G
In the sky of a million stars

It flickers, flickers
     G/F#                 Em
Who cares when someone's time runs out?
      C7M(6)          G
If a moment is all we are

We're quicker, quicker
     G/F#              Em
Who cares if one more light goes out?
      G/A  G  G/F#
Well, I   do

[Base Solo]

Em  C7M(6)  G  G/F#
Em  C7M(6)  D4(6)

[Solo]

#7t1#Parte 1
#7t2#E|---------------------------10-10-10-----------------|
B|-12-12-12-12-10-10-8-8-8-8----------10-10-10--------|
G|----------------------------------------------------|
D|----------------------------------------------------|
A|----------------------------------------------------|
E|----------------------------------------------------|#/7t2##/7t1#

#8t1#Parte 2 (2x)
#8t2#E|---------------------------10-10-10-----------------|
B|-8-10-10-10-12-12-10-8-8-8----------10-10-10--------|
G|----------------------------------------------------|
D|----------------------------------------------------|
A|----------------------------------------------------|
E|----------------------------------------------------|#/8t2##/8t1#

#9t1#Parte 3
#9t2#E|----------------------------------------------------|
B|-8-10-10-10-12-12-8-10-10-10-12-12-12---------------|
G|----------------------------------------------------|
D|----------------------------------------------------|
A|----------------------------------------------------|
E|----------------------------------------------------|#/9t2##/9t1#

#10t1#Parte 4
#10t2#E|----------------------------------------------------|
B|-10-10-10-10-10-12-13-12-10-8-8---------------------|
G|----------------------------------------------------|
D|----------------------------------------------------|
A|----------------------------------------------------|
E|----------------------------------------------------|#/10t2##/10t1#

[Refrão Final]

                       Em
Who cares if one more light goes out?
         C7M(6)           G
In the sky of a million stars

It flickers, flickers
     G/F#                 Em
Who cares when someone's time runs out?
      C7M(6)          G
If a moment is all we are

We're quicker, quicker
     G/F#              Em
Who cares if one more light goes out?
      G/A  G
Well, I   do

Well, I do
Composição: Brad Delson / Chester Bennington / Dave Farrell / Francis White / Joseph Hahn / Mike Shinoda / Robert G. BourdonColaboração e revisão: Caico AntunesAlisson Oliveira
Videoaula One More Light (aula de violão completa)