Somewhere I Belong

Linkin Park

A5
134
577XXX
B5/F#
3
P224XXX
D5/A
3
P557XXX
E5
0P22XXX
G5
134
355XXX
Tom: G
Introdução – Parte 1:

#1t1##1t2#Eb|---------5------------------------------------------|
Bb|----7--7----7---------------------------------------|
Gb|-4--------------------------------------------------|  (8x)
Db|----------------------------------------------------|
Ab|----------------------------------------------------|
Eb|----------------------------------------------------|#/1t2##/1t1#


Introdução – Parte 2: B5/F#  D5/A  G5  E5
                      B5/F#  D5/A  A5  E5

#2t1##2t2#Eb|----------------------------------------------------|
Bb|----------------------------------------------------|
Gb|-8-8-8-8-8-8-8-8-9-9-9-9-9-9-9-9--------------------|
Db|----------------------------------------------------|
Ab|-6-6-6-6-6-6-6-6-7-7-7-7-7-7-7-7--------------------|
Eb|----------------------------------------------------|#/2t2##/2t1#

#3t1##3t2#Eb|----------------------------------------------------|
Bb|----------------------------------------------------|
Gb|-11-11-11-11-11-11-11-11-9-9-9-9-9-9-9-9------------|
Db|----------------------------------------------------|
Ab|-9--9--9--9--9--9--9--9--7-7-7-7-7-7-7-7------------|
Eb|----------------------------------------------------|#/3t2##/3t1#

#4t1##4t2#Eb|----------------------------------------------------|
Bb|----------------------------------------------------|
Gb|-8-8-8-8-8-8-8-8-9-9-9-9-9-9-9-9--------------------|
Db|----------------------------------------------------|
Ab|-6-6-6-6-6-6-6-6-7-7-7-7-7-7-7-7--------------------|
Eb|----------------------------------------------------|#/4t2##/4t1#

#5t1##5t2#Eb|----------------------------------------------------|
Bb|----------------------------------------------------|
Gb|-6-6-6-6-6-6-6-6-4-4-4-4-4-4-4-4-4~~----------------|
Db|----------------------------------------------------|
Ab|-4-4-4-4-4-4-4-4-2-2-2-2-2-2-2-2-2~~----------------|
Eb|----------------------------------------------------|#/5t2##/5t1#


Primeira Parte:

(When this began)
I had nothing to say
And I get lost in the nothingness inside of me

(I was confused)
And I let it all out to find
That I'm not the only person
With these things in mind

(Inside of me)
But all the vacancy the words revealed
Is the only real thing
That I've got left to feel

(Nothing to lose)
Just stuck, hollow and alone
And the fault is my own
And the fault is my own


#6t1#Primeiro Refrão:
#6t2#Eb|----------------------------------------------------|
Bb|----------------------------------------------------|
Gb|-8-8-8-8-8-8-8-8-9-9-9-9-9-9-9-9--------------------|
Db|----------------------------------------------------|
Ab|-6-6-6-6-6-6-6-6-7-7-7-7-7-7-7-7--------------------|
Eb|----------------------------------------------------|#/6t2##/6t1#

#7t1##7t2#Eb|----------------------------------------------------|
Bb|----------------------------------------------------|
Gb|-11-11-11-11-11-11-11-11-9-9-9-9-9-9-9-9------------|
Db|----------------------------------------------------|
Ab|-9--9--9--9--9--9--9--9--7-7-7-7-7-7-7-7------------|
Eb|----------------------------------------------------|#/7t2##/7t1#

#8t1##8t2#Eb|----------------------------------------------------|
Bb|----------------------------------------------------|
Gb|-8-8-8-8-8-8-8-8-9-9-9-9-9-9-9-9--------------------|
Db|----------------------------------------------------|
Ab|-6-6-6-6-6-6-6-6-7-7-7-7-7-7-7-7--------------------|
Eb|----------------------------------------------------|#/8t2##/8t1#

#9t1##9t2#Eb|----------------------------------------------------|
Bb|----------------------------------------------------|
Gb|-11-11-11-11-11-11-11-11-9-9-9-9-9-9-9-9------------|
Db|----------------------------------------------------|
Ab|-9--9--9--9--9--9--9--9--7-7-7-7-7-7-7-7------------|
Eb|----------------------------------------------------|#/9t2##/9t1#

#10t1##10t2#Eb|----------------------------------------------------|
Bb|----------------------------------------------------|
Gb|-8-8-8-8-8-8-8-8-9-9-9-9-9-9-9-9--------------------|
Db|----------------------------------------------------|
Ab|-6-6-6-6-6-6-6-6-7-7-7-7-7-7-7-7--------------------|
Eb|----------------------------------------------------|#/10t2##/10t1#

#11t1##11t2#Eb|----------------------------------------------------|
Bb|----------------------------------------------------|
Gb|-11-11-11-11-11-11-11-11-9-9-9-9-9-9-9-9------------|
Db|----------------------------------------------------|
Ab|-9--9--9--9--9--9--9--9--7-7-7-7-7-7-7-7------------|
Eb|----------------------------------------------------|#/11t2##/11t1#

#12t1##12t2#Eb|----------------------------------------------------|
Bb|----------------------------------------------------|
Gb|-8-8-8-8-8-8-8-8-9-9-9-9-9-9-9-9--------------------|
Db|----------------------------------------------------|
Ab|-6-6-6-6-6-6-6-6-7-7-7-7-7-7-7-7--------------------|
Eb|----------------------------------------------------|#/12t2##/12t1#

#13t1##13t2#Eb|----------------------------------------------------|
Bb|----------------------------------------------------|
Gb|-6-6-6-6-6-6-6-6-4-4-4-4-4-4-4-4-4~~----------------|
Db|----------------------------------------------------|
Ab|-4-4-4-4-4-4-4-4-2-2-2-2-2-2-2-2-2~~----------------|
Eb|----------------------------------------------------|#/13t2##/13t1#


         B5/F#         D5/A
I wanna heal, I wanna feel
         G5               E5
What I thought was never real
         B5/F#         D5/A              A5
I wanna let go of the pain I've held so long
                E5
(Erase all the pain till it's gone)
         B5/F#         D5/A
I wanna heal, I wanna feel
           G5                E5
Like I'm close to something real
         B5/F#               D5/A        A5
I wanna find something I've wanted all along
 E5
Somewhere I belong


Segunda Parte:

And I've got nothing to say
I can't believe
I didn't fall right down on my face

(I was confused)
Looking everywhere only to find
That it's not the way
I had imagined it all in my mind

(So what am I?)
What do I have but negativity?
'Cause I can't justify the way
Everyone is looking at me

(Nothing to lose)
Nothing to gain, hollow and alone
And the fault is my own
And the fault is my own


#14t1#Segundo Refrão:
#14t2#Eb|----------------------------------------------------|
Bb|----------------------------------------------------|
Gb|-8-8-8-8-8-8-8-8-9-9-9-9-9-9-9-9--------------------|
Db|----------------------------------------------------|
Ab|-6-6-6-6-6-6-6-6-7-7-7-7-7-7-7-7--------------------|
Eb|----------------------------------------------------|#/14t2##/14t1#

#15t1##15t2#Eb|----------------------------------------------------|
Bb|----------------------------------------------------|
Gb|-11-11-11-11-11-11-11-11-9-9-9-9-9-9-9-9------------|
Db|----------------------------------------------------|
Ab|-9--9--9--9--9--9--9--9--7-7-7-7-7-7-7-7------------|
Eb|----------------------------------------------------|#/15t2##/15t1#

#16t1##16t2#Eb|----------------------------------------------------|
Bb|----------------------------------------------------|
Gb|-8-8-8-8-8-8-8-8-9-9-9-9-9-9-9-9--------------------|
Db|----------------------------------------------------|
Ab|-6-6-6-6-6-6-6-6-7-7-7-7-7-7-7-7--------------------|
Eb|----------------------------------------------------|#/16t2##/16t1#

#17t1##17t2#Eb|----------------------------------------------------|
Bb|----------------------------------------------------|
Gb|-11-11-11-11-11-11-11-11-9-9-9-9-9-9-9-9------------|
Db|----------------------------------------------------|
Ab|-9--9--9--9--9--9--9--9--7-7-7-7-7-7-7-7------------|
Eb|----------------------------------------------------|#/17t2##/17t1#

#18t1##18t2#Eb|----------------------------------------------------|
Bb|----------------------------------------------------|
Gb|-8-8-8-8-8-8-8-8-9-9-9-9-9-9-9-9--------------------|
Db|----------------------------------------------------|
Ab|-6-6-6-6-6-6-6-6-7-7-7-7-7-7-7-7--------------------|
Eb|----------------------------------------------------|#/18t2##/18t1#

#19t1##19t2#Eb|----------------------------------------------------|
Bb|----------------------------------------------------|
Gb|-11-11-11-11-11-11-11-11-9-9-9-9-9-9-9-9------------|
Db|----------------------------------------------------|
Ab|-9--9--9--9--9--9--9--9--7-7-7-7-7-7-7-7------------|
Eb|----------------------------------------------------|#/19t2##/19t1#

#20t1##20t2#Eb|----------------------------------------------------|
Bb|----------------------------------------------------|
Gb|-8-8-8-8-8-8-8-8-9-9-9-9-9-9-9-9--------------------|
Db|----------------------------------------------------|
Ab|-6-6-6-6-6-6-6-6-7-7-7-7-7-7-7-7--------------------|
Eb|----------------------------------------------------|#/20t2##/20t1#

#21t1##21t2#Eb|----------------------------------------------------|
Bb|----------------------------------------------------|
Gb|-6-6-6-6-6-6-6-6-4-4-4-4-4-4-4-4--------------------|
Db|----------------------------------------------------|
Ab|-4-4-4-4-4-4-4-4-2-2-2-2-2-2-2-2--------------------|
Eb|----------------------------------------------------|#/21t2##/21t1#


         B5/F#         D5/A
I wanna heal, I wanna feel
         G5               E5
What I thought was never real
         B5/F#         D5/A              A5
I wanna let go of the pain I've held so long
                E5
(Erase all the pain till it's gone)
         B5/F#         D5/A
I wanna heal, I wanna feel
           G5                E5
Like I'm close to something real
         B5/F#               D5/A        A5
I wanna find something I've wanted all along
 E5
Somewhere I belong


#22t1#Terceira Parte:
#22t2#Eb|------------------------------------------|
Bb|------------------------------------------|
Gb|-11-11-11--11-11-11-11--------11-11-11-11-|
Db|------------------------5--5--------------|
Ab|-9--9--9---9--9--9--9---5--5--9--9--9--9--|
Eb|------------------------3--3--------------|#/22t2##/22t1#

#23t1##23t2#Eb|------------------------------------------|
Bb|------------------------------------------|
Gb|-------11-11-11-11--------6/7--6----------|
Db|-7--7---------------2--2------------------|
Ab|-7--7--9--9--9--9---2--2--4/5--4----------|
Eb|-5--5---------------0--0------------------|#/23t2##/23t1#

#24t1##24t2#Eb|------------------------------------------|
Bb|------------------------------------------|
Gb|-11-11-11--11-11-11-11--------11-11-11-11-|
Db|------------------------5--5--------------|
Ab|-9--9--9---9--9--9--9---5--5--9--9--9--9--|
Eb|------------------------3--3--------------|#/24t2##/24t1#

#25t1##25t2#Eb|------------------------------------------|
Bb|------------------------------------------|
Gb|-------11-11-11-11--------6/7--6----------|
Db|-7--7---------------2--2------------------|
Ab|-7--7--9--9--9--9---2--2--4/5--4----------|
Eb|-5--5---------------0--0------------------|#/25t2##/25t1#

#26t1##26t2#Eb|------------------------------------------|
Bb|------------------------------------------|
Gb|-11-11-11--11-11-11-11--------14-14-14-14-|
Db|------------------------5--5--------------|
Ab|-9--9--9---9--9--9--9---5--5--12-12-12-12-|
Eb|------------------------3--3--------------|#/26t2##/26t1#

#27t1##27t2#Eb|------------------------------------------|
Bb|------------------------------------------|
Gb|-------11-11-11-11--------6/7--6----------|
Db|-7--7---------------2--2------------------|
Ab|-7--7--9--9--9--9---2--2--4/5--4----------|
Eb|-5--5---------------0--0------------------|#/27t2##/27t1#

#28t1##28t2#Eb|------------------------------------------|
Bb|------------------------------------------|
Gb|-11-11-11--11-11-11-11--------11-11-11-11-|
Db|------------------------5--5--------------|
Ab|-9--9--9---9--9--9--9---5--5--9--9--9--9--|
Eb|------------------------3--3--------------|#/28t2##/28t1#

#29t1##29t2#Eb|------------------------------------------|
Bb|------------------------------------------|
Gb|-11\9--9\7--7--6/7\--4~~------------------|
Db|------------------------------------------|
Ab|-9-\7--7\5--5--4/7\--2~~------------------|
Eb|------------------------------------------|#/29t2##/29t1#


B5/F#         G5
      I will never know
   A5
Myself until I
 E5           B5/F#
Do this on my own
            G5
And I will never feel
A5
Anything else
   E5                   B5/F#
Until my wounds are healed
        G5
I will never be
A5                 E5               B5/F#
Anything 'till I break away from me
         G5
I will break away
      A5     E5
I'll find myself today


#30t1#Terceiro Refrão:
#30t2#Eb|----------------------------------------------------|
Bb|----------------------------------------------------|
Gb|-8-8-8-8-8-8-8-8-9-9-9-9-9-9-9-9--------------------|
Db|----------------------------------------------------|
Ab|-6-6-6-6-6-6-6-6-7-7-7-7-7-7-7-7--------------------|
Eb|----------------------------------------------------|#/30t2##/30t1#

#31t1##31t2#Eb|----------------------------------------------------|
Bb|----------------------------------------------------|
Gb|-11-11-11-11-11-11-11-11-9-9-9-9-9-9-9-9------------|
Db|----------------------------------------------------|
Ab|-9--9--9--9--9--9--9--9--7-7-7-7-7-7-7-7------------|
Eb|----------------------------------------------------|#/31t2##/31t1#

#32t1##32t2#Eb|----------------------------------------------------|
Bb|----------------------------------------------------|
Gb|-8-8-8-8-8-8-8-8-9-9-9-9-9-9-9-9--------------------|
Db|----------------------------------------------------|
Ab|-6-6-6-6-6-6-6-6-7-7-7-7-7-7-7-7--------------------|
Eb|----------------------------------------------------|#/32t2##/32t1#

#33t1##33t2#Eb|----------------------------------------------------|
Bb|----------------------------------------------------|
Gb|-11-11-11-11-11-11-11-11-9-9-9-9-9-9-9-9------------|
Db|----------------------------------------------------|
Ab|-9--9--9--9--9--9--9--9--7-7-7-7-7-7-7-7------------|
Eb|----------------------------------------------------|#/33t2##/33t1#

#34t1##34t2#Eb|----------------------------------------------------|
Bb|----------------------------------------------------|
Gb|-8-8-8-8-8-8-8-8-9-9-9-9-9-9-9-9--------------------|
Db|----------------------------------------------------|
Ab|-6-6-6-6-6-6-6-6-7-7-7-7-7-7-7-7--------------------|
Eb|----------------------------------------------------|#/34t2##/34t1#

#35t1##35t2#Eb|----------------------------------------------------|
Bb|----------------------------------------------------|
Gb|-11-11-11-11-11-11-11-11-9-9-9-9-9-9-9-9------------|
Db|----------------------------------------------------|
Ab|-9--9--9--9--9--9--9--9--7-7-7-7-7-7-7-7------------|
Eb|----------------------------------------------------|#/35t2##/35t1#

#36t1##36t2#Eb|----------------------------------------------------|
Bb|----------------------------------------------------|
Gb|-8-8-8-8-8-8-8-8-9-9-9-9-9-9-9-9--------------------|
Db|----------------------------------------------------|
Ab|-6-6-6-6-6-6-6-6-7-7-7-7-7-7-7-7--------------------|
Eb|----------------------------------------------------|#/36t2##/36t1#

#37t1##37t2#Eb|----------------------------------------------------|
Bb|----------------------------------------------------|
Gb|-11-11-11-11-11-11-11-11-9-9-9-9-9-9-9-9------------|
Db|----------------------------------------------------|
Ab|-9--9--9--9--9--9--9--9--7-7-7-7-7-7-7-7------------|
Eb|----------------------------------------------------|#/37t2##/37t1#


         B5/F#         D5/A
I wanna heal, I wanna feel
         G5               E5
What I thought was never real
         B5/F#         D5/A              A5
I wanna let go of the pain I've held so long
                E5
(Erase all the pain till it's gone)
         B5/F#         D5/A
I wanna heal, I wanna feel
           G5                E5
Like I'm close to something real
         B5/F#               D5/A        A5
I wanna find something I've wanted all along
 E5            B5/F#
Somewhere I belong


#38t1#Final:
#38t2#Eb|----------------------------------------------------|
Bb|----------------------------------------------------|
Gb|-8-8-8-8-8-8-8-8-9-9-9-9-9-9-9-9--------------------|
Db|----------------------------------------------------|
Ab|-6-6-6-6-6-6-6-6-7-7-7-7-7-7-7-7--------------------|
Eb|----------------------------------------------------|#/38t2##/38t1#

#39t1##39t2#Eb|----------------------------------------------------|
Bb|----------------------------------------------------|
Gb|-11-11-11-11-11-11-11-11-9-9-9-9-9-9-9-9------------|
Db|----------------------------------------------------|
Ab|-9--9--9--9--9--9--9--9--7-7-7-7-7-7-7-7------------|
Eb|----------------------------------------------------|#/39t2##/39t1#

#40t1##40t2#Eb|----------------------------------------------------|
Bb|----------------------------------------------------|
Gb|-8-8-8-8-8-8-8-8-9-9-9-9-9-9-9-9--------------------|
Db|----------------------------------------------------|
Ab|-6-6-6-6-6-6-6-6-7-7-7-7-7-7-7-7--------------------|
Eb|----------------------------------------------------|#/40t2##/40t1#

#41t1##41t2#Eb|----------------------------------------------------|
Bb|----------------------------------------------------|
Gb|-6-6-6-6-6-6-6-6-4-4-4-4-4-4-4-4--------------------|
Db|----------------------------------------------------|
Ab|-4-4-4-4-4-4-4-4-2-2-2-2-2-2-2-2--------------------|
Eb|----------------------------------------------------|#/41t2##/41t1#


         D5/A          G5
I wanna heal, I wanna feel
          E5            B5/F#
Like I'm somewhere I belong

         D5/A          A5
I wanna heal, I wanna feel
          E5            B5/F#
Like I'm somewhere I belong

Somewhere I belong

Somewhere I belong
Composição: Brad Delson / Chester Bennington / Dave Phoenix Farrell / Joe Hahn / Mike Shinoda / Rob BourdonColaboração e revisão: DaniloDener SilveiraPedro FiorentinHeldere mais 1
Videoaula Somewhere I Belong - Linkin Park (aula de guitarra)