busca

Ridículo

Livres Para Adorar

Tom: G#
Intro:  Fm7  C#9  Bbm7

E|----------------------------------------------------------|
B|----------------------------------------------------------|
G|----------------------------------------------------------| (3x)
D|----------6---------6-------------6---------6-------------|
A|-/8--6--8---8--6--8---8--6h8--6h8---8--6--8---8-----------|
E|----------------------------------------------------------|

Verso 1:
Fm7                     C#9
Dizem vã é minha fé
          G#                   Fm7
Um delírio é crer em Deus
                              C#9
Adorar a quem morreu
           Bbm7           Fm7
Tão pequeno é esse ser

Verso 2:
         C#9               Bbm7
Veja Deus é morto um delírio
Fm7          C#9     Eb4          Fm7   Gm  G#  Bb9
Veja, veja que ridículo é ser você
                     Fm7  Gm  G#  Bb9  Cm7
Você é ridículo

Verso 3:
                          Bb9
Prefiro mesmo assim
            Gm7         G#      Cm7
Continuar e acreditar
                 Bb9          Gm7            G#
Ridículo serei se isso for trazer glória

Solo Guit 1: Fm7  C#9  G#  Bbm7  (2x)

E|----------------------------------------------------------|
B|----18--16--18--16---21--20--21--20-----------------------|
G|--17--17--17--17--17---17--17--17-------------------------| (3x)
D|----------------------------------------------------------|
A|----------------------------------------------------------|
E|----------------------------------------------------------|


Verso 4:
Fm7                  C#9
O melhor está por vir
       G#      Bbm      Fm7
Cidadãos deste    país
               C#9                       Bbm          Fm7
Ele vem outra vez melhor será se você crer

Verso 5:
         C#9                G#        Bbm   Fm7
Veja ressurgiu dos mortos, Ele      vive
          C#9        Bbm              Fm7  Gm7  G#  Bb9
Creia Ele deu a vida por você
                            Fm7  Gm7  G#  Bb9   Cm7
Foi por amor a você

Verso 6:
                      Bb9         Gm7       G#    Cm7
Então eu viverei com você na glória
     Bb9           Gm          G#
Eu sei com você na glória

Solo Guitarra / Final:  Eb  EØ  F4  C - 3X

E|----------------------------------------------------------|
B|-------15--13--12-----------------------------------------|
G|--12-12--12--12--12---------------------------------------| (6x)
D|----------------------------------------------------------|
A|----------------------------------------------------------|
E|----------------------------------------------------------|

E|----------------------------------------------------------|
B|-------15--13p12h13-15---15-15-15-15-15-15-15-------------|
G|-----12--12--------------12-12-12-12-12-12-12-------------| 
D|----------------------------------------------------------|
A|----------------------------------------------------------|
E|----------------------------------------------------------|

Frase acima se repete 2x

E|----------------------------------------------------------|
B|-----20-----20-----20-----20-----20---24------------------|
G|--22b24--22b24--22b24--22b24--22b24-----------------------| (3x)
D|----------------------------------------------------------|
A|----------------------------------------------------------|
E|----------------------------------------------------------|

Clipes