busca

Tempos Melhores

Livres Para Adorar

Tom: C#
(intro) (00:00 a 00:32) Bbm  G#  F#

(parte 1)
             C#9
És o Deus deste lugar
            G#
O Rei deste povo
           Bbm           F#
Senhor desta nação, Tu és
               C#9
És a luz da escuridão
                G#
Esperança ao perdido
            Bbm        F
A paz ao cansado, Tu és

(teclado + dedilhado no violão) (01:00 a 01:15)

Bbm        G#         F#
Não há outro igual a Ti
Bbm        G#         F#    G#4    G#
Não há outro igual a Ti

(dedilhado violão)
(2x)                                            (1x)
E|-------1-------------4----------------4-------|----4----4----|
B|----------2-------------4-------2-------------|----4----4----|
G|----3-------------5----------------3----------|----6----5----|
D|----------------------------------------------|----6----6----| 
A|-1--------------------------------------------|----6----6----|
E|---------------4-------------2----------------|----4----4----|

(refrão)
F#
Tempos melhores estão por vir
G#                                C#9 G# F#
Obras maiores se farão neste lugar
F#
Tempos melhores estão por vir
G#                                C#9 G# F#
Obras maiores se farão neste lugar

F#
Tempos melhores estão por vir
G#                                C#9 G# F#
Obras maiores se farão neste lugar

(parte 2) (riff guitarra e bateria)
             C#9
És o Deus deste lugar
            G#
O Rei deste povo
           Bbm           F#
Senhor desta nação, Tu és
               C#9
És a luz da escuridão
                G#
Esperança ao perdido
            Bbm        F
A paz ao cansado, Tu és

(riff guitarra na parte 2) (01:45 a 02:10)
E|----------------------------------------------------------------------------|
B|----------------------------------------------------------------------------|
G|-3/6-6-6-6-6-6-6-5-5-5-6-6-6-6-6-5-5-5-6-6-6/8-8/11-11-11-11-11-11-11-11-11-| (2x)
D|----------------------------------------------------------------------------|
A|----------------------------------------------------------------------------|
E|----------------------------------------------------------------------------|

(teclado + violão base + guitarra fazendo mesmo dedilhado da parte 1)

Bbm        G#         F#
Não há outro igual a Ti
Bbm        G#         F#    G#4    G#
Não há outro igual a Ti

(refrão)

F#
Tempos melhores estão por vir
G#                                C#9 G# F#
Obras maiores se farão neste lugar
F#
Tempos melhores estão por vir
G#                                C#9 G# F#
Obras maiores se farão neste lugar

F#
Tempos melhores estão por vir
G#                         C#9 G# F#
Obras maiores se farão lugar
F#
Tempos melhores estão por vir
G#
Obras maiores se farão aqui

(solo) (03:15 a 03:40) C#9  F#  C#9  F#  Bbm  G#  F#  Bbm  G#  F#

(solo guitarra) (03:15 a 03:26)
E|--------------------------------------------------|
B|--14----14-16-18-14----14-16~---------------------|
G|-----15-------------15----------------------------|
D|--------------------------------------------------| (2x)
A|--------------------------------------------------|
E|--------------------------------------------------|

(03:26 a 03:40)
E|--13----13----11----11----16----16----14----14-----13----13----11----11-----------|
B|-----14----14----14----14----14----14----14----14-----14----14----14----14-14~----|
G|----------------------------------------------------------------------------------|
D|----------------------------------------------------------------------------------|
A|----------------------------------------------------------------------------------|
E|----------------------------------------------------------------------------------|

Bbm        G#         F#
Não há outro igual a Ti
Bbm        G#         F#    G#4    G#
Não há outro igual a Ti

(Quando ele termina essa frase, a guitarra faz um riff bem simples)

(03:51 a 03:56)
E|-------4---------|
B|---2--------2--1-|
G|-----3-----------|
D|-----------------|
A|-----------------|
E|-----------------|

(refrão) 
F#
Tempos melhores estão por vir
G#                                C#9 G# F#
Obras maiores se farão neste lugar
F#
Tempos melhores estão por vir
G#                                C#9 G# F#
Obras maiores se farão neste lugar

F#
Tempos melhores estão por vir
G#                                C#9 G# F#
Obras maiores se farão neste lugar
F#
Tempos melhores estão por vir
G#
Obras maiores se farão neste aqui

(solo final) C#9  F#  C#9  F#  Bbm  G# F#  Bbm  G#  F#  C#9  F#  C#9  F#

(solo final) (04:44 a 04:56)

     C#9               F#
E|--------------------------------------------------|
B|--14----14-16-18-14----14-16~---------------------|
G|-----15-------------15----------------------------|
D|--------------------------------------------------| (2x)
A|--------------------------------------------------|
E|--------------------------------------------------|

(04:56 a 05:10)
     Bbm         G#          F#
E|--13----13----11----11----16----16----14----14-----|
B|-----14----14----14----14----14----14----14----14--|
G|---------------------------------------------------| (2x)
D|---------------------------------------------------|
A|---------------------------------------------------|
E|---------------------------------------------------|

(05:10 a 05:22)
    C#9                     F#
E|-16-16-16-14-14-13-13-13-16-16-16-14-14-13-13-13-16-16-16-14-14-13-13---------|
B|----------------------------------------------------------------------14-14~--|
G|------------------------------------------------------------------------------|
D|------------------------------------------------------------------------------|
A|------------------------------------------------------------------------------|
E|------------------------------------------------------------------------------|

Clipes