busca

Tu Carcel

Los Enanitos Verdes

Tom: D
(intro 2x) D A Bm G A

E|--------------------------------------------------
B|--------------------------------------------------
G|--9h11--11/9-7----7-7-9-9h11-11-7-9-9-7-6---------
D|--------------------------------------------------
A|--------------------------------------------------
E|--------------------------------------------------

E|-------------------------------------------------
B|-------------------------------------------------
G|--6-6-7-9-9-6-7--7-6-4---4-4-4-7-6-4-6/7/9-9-----
D|-------------------------------------------------
A|-------------------------------------------------
E|-------------------------------------------------

      D                             A
E|-------------------------------------------------
B|-------------------------------------------------
G|--9h11--11/9-7----7-7-9-9h11-11-7-9-9-7-6--------
D|-------------------------------------------------
A|-------------------------------------------------
E|-------------------------------------------------

               Bm          G                  A
E|-------------------------------------------------
B|-------------------------------------------------
G|--6-6-7-9-9-6-7--7-6-4---4-4-4-7-6-4-6/7/9-9-----
D|-------------------------------------------------
A|-------------------------------------------------
E|-------------------------------------------------

D                                  A
   Te vas amor si asi lo quieres que puedo yo hacer
                    Bm            G
   tu vanidad no te deja entender
                        A
   que en la pobreza se sabe querer

   D                                A
   Quiero llorar y me destroza que pienses asi
                       Bm         G
   y mas que ahora me quede sin ti
                       A
   me duele lo que tu vas a sufrir

(refrão)
   D                                A
   Pero recuerda nadie es perfecto y tu lo veras
                      Bm              G
   mas de mil cosas mejores tendras
                  A
   pero cariño sincero jamas

   D                                     A
   Vete olvidando de esto que hoy dejas y que cambiaras
                       Bm             G
   por la aventura que tu ya veras
                     A
   sera tu carcel y nunca saldras

( D A Bm G A ) (2x)

   D                                A
   Quiero llorar y me destroza que pienses asi
                       Bm         G
   y mas que ahora me quede sin ti
                      A
   me duele lo que tu vas a sufrir

(refrão)
   D                                A
   Pero recuerda nadie es perfecto y tu lo veras
                      Bm              G
   mas de mil cosas mejores tendras
                  A
   pero cariño sincero jamas

   D                                     A
   Vete olvidando de esto que hoy dejas y que cambiaras
                       Bm             G
   por la aventura que tu ya veras
                     A
   sera tu carcel y nunca saldras

Clipes