busca

Anna Júlia

Los Hermanos

Tom: Eb (forma dos acordes no tom de E) Afinação: Eb Ab Db Gb Bb Eb
Afinação 1/2 tom abaixo

[Intro] E  C#m
        E  C#m
 
[Primeira Parte]

  E             C#m           G#m
Quem te ver passar assim por mim 
     A         B     E
Não sabe o que é sofrer
         C#m        G#m  A          B
Ter que ver você assim, sempre tão linda
 E            C#m          G#m    A     B    E
Contemplar o sol do teu olhar perder você no ar
       C#m         G#m  A  B     
Na certeza de um amor  

[Pré-Refrão]

             C#m
Me achar um nada
                    G#m                 A
Pois sem ter teu carinho eu me sinto sozinho
                B
Eu me afogo em solidão

[Refrão]

        E  A  B
Ô Anna Julia
        E  A  B
Ô Anna Julia

[Segunda Parte]

 E           C#m       G#m    A     B      E
Nunca acreditei na ilusão de ter você pra mim
        C#m          G#m    A        B
Me atormenta a previsão do nosso destino
E              C#m          G#m    A      B    E
Eu passando o dia a te esperar, você sem me notar
        C#m        G#m    A        B          
Quando tudo tiver fim, você vai estar 

[Pré-Refrão]

        C#m
Com um cara
                 G#m                    A
Um alguém sem carinho será sempre um espinho
               B
Dentro do meu coração

[Refrão]

        E  A  B
Ô Anna Julia
        E  A  B
Ô Anna Julia

[Solo] E  A  B 
       E  A  B
       E  A  B 
       E  A  B 
       C#m  G#m  A  E 
       C#m  G#m  A  B

E|---------------------------------------------------|
B|---------------------------------------------------|
G|---------------------------------------------------|
D|-2-2-2-4-2-2-2-2-4-2-1--2-2-2-4-2-2-2-2-4-2-1------|
A|---------------------------------------------------|
E|---------------------------------------------------|

E|---------------------------------------------------|
B|-3/5-5-5-7-5--5-5-5-7-5-4-5------------------------|
G|---------------------------------------------------|
D|---------------------------------------------------|
A|---------------------------------------------------|
E|---------------------------------------------------|

E|---------------------------------------------------|
B|-------------5-4-----------------------------------|
G|-----------------4-6-4-2-4-------------------------|
D|---------------------------------------------------|
A|-----2-4-2-4---------------------------------------|
E|-12\-----------------------------------------------|

E|---------12-11-------11-12-------------------------|
B|---------------12-14-------------------------------|
G|---------------------------------------------------|
D|---------------------------------------------------|
A|-2-4-2-4-------------------------------------------|
E|---------------------------------------------------|

E|-14-14-14-14-14-14-14-14-14-14-14-14-14-14-14-14---|
B|---------------------------------------------------|
G|---------------------------------------------------|
D|---------------------------------------------------|
A|---------------------------------------------------|
E|---------------------------------------------------|

 C#m       G#m        A          E
Sei que você já não quer o meu amor
 C#m       G#m       A        E
Sei que você já não gosta de mim
    C#m            G#         A            E
Eu sei que eu não sou quem você sempre sonhou
     C#m          G#         A            B
Mas vou reconquistar o seu amor todo pra mim

[Refrão]

        E  A  B
Ô Anna Julia
        E  A  B
Ô Anna Julia
        E  A  B
Ô Anna Julia
        E      A      B            E
Ô Anna Julia, Julia, Julia...ou ou ou

Clipes