Asa Branca

Luiz Gonzaga

C
123
X32010
D7
123
XX0212
D7/F#
1234
XX4535
F/A
1234
5X356X
G
123
320003
G/F
13
1XX003
G7
34
353433
Tom: G
[Intro]

#1t1#       G
#1t2#E|---1---0------------------------------------|
B|-0---3---1-3-0-1---0-----------0------------|
G|-0---------------2---0-2-0---0-0------------|
D|-0-------------------------2---0------------|
A|--------------------------------------------|
E|-3-----------------------------3------------|#/1t2##/1t1#

#2t1##2t2#E|-1---0--------------------------------------|
B|---3---1-3-0-1---0--------------------------|
G|---------------2---0-2-0---0----------------|
D|-------------------------2------------------|
A|--------------------------------------------|
E|-3---3---3---3---3---3---3------------------|#/2t2##/2t1#

#3t1#    G   G/F  G     G/F  G  G/F
#3t2#E|--------------------------------------------|
B|-0-0---0--0--0----0--0--0----0---0-0---0--0-|
G|-0-0---0--0--0----0--0--0----0---0-0---0--0-|
D|-0-0---0--0--0----0--0--0----0---0-0---0--0-|
A|--------------------------------------------|
E|-3---1----3-----1----3----1----1-----1----3-|#/3t2##/3t1#

[Primeira parte]

#4t1#    G
#4t2#E|------------------------------------------|
B|-0---0----0--0---0----0--0---0----0-------|
G|-0---0----0--0---0----0--0---0----0-------|
D|-0---0----0--0---0----0--0---0----0-------|
A|------------------------------------------|
E|-3-----3-----3-----3-----3-----3----------|#/4t2##/4t1#

#5t1#    C                       G
#5t2#E|------------------------------------------|
B|-1---1----1---1---1----1---0---0----0-----|
G|-0---0----0---0---0----0---0---0----0-----|
D|-2---2----2---2---2----2---0---0----0-----|
A|-3-----3------3-----3---------------------|
E|---------------------------3-----3--------|#/5t2##/5t1#

#6t1#    D7/F#       G
#6t2#E|------------------------------------------|
B|-1---1----1--0---0----0--0---0----0-------|
G|-2---2----2--0---0----0--0---0----0-------|
D|-0---0----0--0---0----0--0---0----0-------|
A|------------------------------------------|
E|-2-----2-----3-----3-----3-----3----------|#/6t2##/6t1#

#7t1#    G7                      C
#7t2#E|------------------------------------------|
B|-0---0----0--0---0----0--1---1----1-------|
G|-0---0----0--0---0----0--0---0----0-------|
D|-3---3----3--3---3----3--2---2----2-------|
A|-------------------------3-----3----------|
E|-3-----3-----3-----3----------------------|#/7t2##/7t1#

#8t1#                 D7
#8t2#E|--------------2---2----2--2---2-----2-----|
B|-1---1----1---1---1----1--1---1-----1-----|
G|-0---0----0---2---2----2--2---2-----2-----|
D|-2---2----2---0-----0-----0------0--------|
A|-3-----3----------------------------------|
E|------------------------------------------|#/8t2##/8t1#

#9t1#      G
#9t2#E|------------------------------------------|
B|---0---0----0--0---0----0-----------------|
G|---0---0----0--0---0----0-----------------|
D|---0---0----0--0---0----0-----------------|
A|------------------------------------------|
E|---3-----3-----3-----3--------------------|#/9t2##/9t1#

G                        C
  Quando oiei a terra ardendo
         G     D7/F#   G
Qual fogueira de São João
          G7            C
Eu perguntei a Deus do céu, ai
           D7         G
Por quê tamanha judiação
          G7            C
Eu perguntei a Deus do céu, ai
           D7         G   (Passagem)
Por quê tamanha judiação

[Passagem]

#10t1#    G
#10t2#E|---1---0--------------------------------|
B|-0--3----1-3-0-1---0------------0-------|
G|-0---------------2---0-2-0---0--0-------|
D|-0-------------------------2----0-------|
A|----------------------------------------|
E|-3------------------------------3-------|#/10t2##/10t1#

                      C
Que braseiro, que fornaia
        G      D7/F#  G
Nem um pé de pran-ta-ção
            G7              C
Por farta d'água perdi meu gado
           D7           G
Morreu de sede, meu alazão
            G7              C
Por farta d'água perdi meu gado
           D7           G  (Passagem)
Morreu de sede, meu alazão

[Passagem]

#11t1#    G
#11t2#E|---1---0--------------------------------|
B|-0--3----1-3-0-1---0------------0-------|
G|-0---------------2---0-2-0---0--0-------|
D|-0-------------------------2----0-------|
A|----------------------------------------|
E|-3------------------------------3-------|#/11t2##/11t1#

G                    C
  Inté mesmo a asa branca
        G      D7/F#  G
Bateu asas do sert----ão
          G7             C
Então eu disse, adeus Rosinha
           D7           G
Guarda contigo meu coração
          G7             C
Então eu disse, adeus Rosinha
           D7           G   (Passagem)
Guarda contigo meu coração

[Passagem]

#12t1#    G
#12t2#E|---1---0--------------------------------|
B|-0--3----1-3-0-1---0------------0-------|
G|-0---------------2---0-2-0---0--0-------|
D|-0-------------------------2----0-------|
A|----------------------------------------|
E|-3------------------------------3-------|#/12t2##/12t1#

G                     C
  Hoje longe, muitas légua
       G     D7/F#  G
Numa triste so-li--dão
           G7           C
Espero a chuva cair de novo
            D7             G
Pra mim voltar pro meu sertão
           G7           C
Espero a chuva cair de novo
            D7             G   (Passagem)
Pra mim voltar pro meu sertão

[Passagem]

#13t1#    G
#13t2#E|---1---0--------------------------------|
B|-0--3----1-3-0-1---0------------0-------|
G|-0---------------2---0-2-0---0--0-------|
D|-0-------------------------2----0-------|
A|----------------------------------------|
E|-3------------------------------3-------|#/13t2##/13t1#

                        C
Quando o verde dos teus óio
       G        D7/F#  G
Se espaiar na pran-ta-ção
           G7             C
Eu te asseguro não chore não, viu?
           D7                  G
Que eu voltarei, viu, meu coração
           G7             C
Eu te asseguro não chore não, viu?
           D7                  G
Que eu voltarei, viu, meu coração

[Passagem]

#14t1#    G
#14t2#E|---1---0--------------------------------|
B|-0--3----1-3-0-1---0------------0-------|
G|-0---------------2---0-2-0---0--0-------|
D|-0-------------------------2----0-------|
A|----------------------------------------|
E|-3------------------------------3-------|#/14t2##/14t1#

[Passagem]

#15t1#    G
#15t2#E|---1---0--------------------------------|
B|-0--3----1-3-0-1---0------------0-------|
G|-0---------------2---0-2-0---0--0-------|
D|-0-------------------------2----0-------|
A|----------------------------------------|
E|-3------------------------------3-------|#/15t2##/15t1#

[Final]

#16t1#    G     G/F   G     G/F   G     G/F
#16t2#E|------------------------------------------|
B|-0---0----0--0---0----0--0---0----0-------|
G|-0---0----0--0---0----0--0---0----0-------|
D|-0---0----0--0---0----0--0---0----0-------|
A|------------------------------------------|
E|-3-----1-----3-----1-----3-----1----------|#/16t2##/16t1#

( F/A  G )
Composição: Humberto Teixeira / Luiz GonzagaColaboração e revisão: Getúlio Vasconcelostamires christinaRosie SobrenomeGislane CASTROe mais 15
Videoaula Asa Branca (aula de violão completa)