busca

Umbuzeiro da Saudade

Luiz Gonzaga

Tom: F
Intro: 

            F                Gm                 C     Bb    Am    Gm    F     Dm    F
E|------------------------------------------------------------------------------------|
B|-3-1---1--------1|-3-1---1--------3|-3-1---1-1-1-1----------------------1--------1--|
G|-----2--------2--------2--------3--------2---------3-3-3-2-2-2------------2----2----|
D|---------3|-3--------------5|-5--------------------------------5-5-5-3|-----3-3-----|
A|------------------------------------------------------------------------------------|
E|------------------------------------------------------------------------------------|

           F    Dm
Umbuzeiro velho
                  Gm
Velho amigo quem diria
                  C
Que tuas folhas caídas
                  Bb
Tuas galhas ressequidas
              F
Iam me servir um dia
                 Dm    Am
Foi naquela manhãzinha
                 Gm      Bb
Quando o sol nós acordou
                  Am
Que a nossa felicidade
                  Gm
Machucou tanta saudade
                       F   Bb
Que me endoideceu de amor
                  Am
Que a nossa felicidade
                  Gm
Machucou tanta saudade
                       F
Que me endoideceu de amor
                 Dm   Am
Indiscreto passarinho
                Dm
Solitário cantador
                   c
Descobriu nosso segredo
                    Gm
Acabou com nosso enredo
              F   Bb
Bateu asas e voou
                  Dm   Am
E hoje vivo pelo mundo
                Dm
Tal qual um vem vem
                    C
Assobiando o dia inteiro
                    Gm
Quando vejo um umbuzeiro
                    F   Dm
Me lembro de ti meu bem

            F                Gm                 C     Bb    Am    Gm    F     Dm    F
E|------------------------------------------------------------------------------------|
B|-3-1---1--------1|-3-1---1--------3|-3-1---1-1-1-1----------------------1--------1--|
G|-----2--------2--------2--------3--------2---------3-3-3-2-2-2------------2----2----|
D|---------3|-3--------------5|-5--------------------------------5-5-5-3|-----3-3-----|
A|------------------------------------------------------------------------------------|
E|------------------------------------------------------------------------------------|

           F    Dm
Umbuzeiro velho
                  Gm
Velho amigo quem diria
                  C
Que tuas folhas caídas
                  Bb
Tuas galhas ressequidas
              F
Iam me servir um dia
                 Dm    Am
Foi naquela manhãzinha
                 Gm      Bb
Quando o sol nós acordou
                  Am
Que a nossa felicidade
                  Gm
Machucou tanta saudade
                       F   Bb
Que me endoideceu de amor
                  Am
Que a nossa felicidade
                  Gm
Machucou tanta saudade
                       F
Que me endoideceu de amor
                 Dm   Am
Indiscreto passarinho
                Dm
Solitário cantador
                   c
Descobriu nosso segredo
                    Gm
Acabou com nosso enredo
              F   Bb
Bateu asas e voou
                  Dm   Am
E hoje vivo pelo mundo
                Dm
Tal qual um vem vem
                    C
Assobiando o dia inteiro
                    Gm
Quando vejo um umbuzeiro
                    F   Dm
Me lembro de ti meu bem

            F                Gm                 C    Bb    Am    Gm     F     Dm    F
E|------------------------------------------------------------------------------------|
B|-3-1---1--------1|-3-1---1--------3|-3-1---1-1-1-1----------------------1--------1--|
G|-----2--------2--------2--------3--------2---------3-3-3-2-2-2------------2----2----|
D|---------3|-3--------------5|-5--------------------------------5-5-5-3|-----3-3-----|
A|------------------------------------------------------------------------------------|
E|------------------------------------------------------------------------------------|

Clipes

Cifra Club Pro

Aproveite o Cifra Club com benefícios exclusivos e sem anúncios
7 dias grátis
Cifra Club Pro
Aproveite o Cifra Club com benefícios exclusivos e sem anúncios
7 dias grátis