busca

Outra Vida

Macucos

Tom: F
Dm
Talvez não seja nessa vida ainda
          Am7
Mas você ainda vai ser a minha vida
Bb7+                Am7        Bb7+               Am7     Bb7+
Entao a gente vai fugir pro mar, eu vou pedir pra namorar
                      Am7                Gm7        C7
Você vai me dizer que vai pensar, mas no fim vai deixar
Dm
Talvez não seja nessa vida ainda
          Am7                       Bb7+
Mas você ainda vai ser a minha vida
                      Am7        Bb7+
Sem ter mais mentiras pra me ver
                 Am7          Bb7+
Sem amor antigo pra esquecer
                   Am7
Sem os teus amigos pra esconder
Gm7            C7              Dm
Pode crer, que tudo vai dar certo
      Am7
Uebaruieio,
         Bb7+       Am7
Sou Pescador, sonhador
      Bb7+                 Am7
Vou dizer pra Deus nosso senhor
       Bb7+                Am7
Que tu és o amor da minha vida
         Gm7                 C7                Dm   Am7
Pois não da pra  viver nessa vida morrendo de amor...ôio...

Dm
Talvez não seja nessa vida ainda
          Am7                       Bb7+
Mas você ainda vai ser a minha vida
                     Am7       Bb7+
E uma abelinha vai fazer o mel
                     Am7       Bb7+
Estrela Dalva vai cruzar no céu
                      Am7
E o vento certo vai soprar no mar
Gm7           C7              Dm
Pode crer, que tudo vai dar certo....

Refrão 2x:
       Am7
Uebaruieio,
         Bb7+       Am7
Sou Pescador, sonhador
      Bb7+                Am7
Vou dizer pra Deus nosso senhor
      Bb7+                Am7
Que tu és o amor da minha vida
         Gm7                 C7                Dm
Pois não da pra  viver nessa vida morrendo de amor...

      Am7         Bb7+      Am7
Uebaruieio, Uebaruieio, uebaio oio.....

Dm Am7 Bb7+ Am7 Bb7+                      Am7           Bb7+     Am7
(solo)           Você acredita numa outra vida, só nós dois?

Solo:
E|------------------------------------------------------------------------------|
B|----6-8-10-11-(8~10)----8---6--5---------(8/10)---8-6-------------6-5---------|
G|---7-----------------------------------5--------------7--------5-------7--5---|
D|--7----------------------------------7----------------------7-----------------|
A|-5----------------------------------------------------------------------------|
E|------------------------------------------------------------------------------|

E|-----------------------------------------------------8--8s6---6-6s5--5-5------|
B|-----------10-----8--------8----------------------8/10-10s8---8-8s6--6-6-6/8-6|
G|-----7-10-----------10-9-7-----10-9-7-(9/10)----------------------------------|
D|-7-8--------------------------------------------------------------------------|
A|------------------------------------------------------------------------------|
E|------------------------------------------------------------------------------|

Gm7           C7               Dm
Pode crer que tudo vai dar certo...
    (efeito no Dm )
E|-1---1-1-------------------|
B|-3---3-3-------------------|
G|-2---2-2-------------------|
D|-0---0-0-------0-----------|
A|-----------0-3-------------|
E|---------------------------|

Clipes

Cifra Club Pro

Aproveite o Cifra Club com benefícios exclusivos e sem anúncios
7 dias grátis
Cifra Club Pro
Aproveite o Cifra Club com benefícios exclusivos e sem anúncios
7 dias grátis