busca

Automaticamente

Maiara e Maraisa

Tom: Em
[Intro] Em  G

E|------------------------------------------|
B|------------------------------------------|
G|---------------------4p2p0----------------|
D|-0h2-2-4-4/5-5-7-7/9----------------------|
A|------------------------------------------|
E|------------------------------------------|

[Primeira Parte]

   Em 
O carro de trás buzinando pra mim
     G
O sinal ficou verde e eu nem percebi

[Riff 1]

                   H.N. . .
E|------------------------------------------|
B|------------------7-----------------------|
G|--------------------7---12----------------|
D|-4/5-4-2-0--2/4~------7-------------------|
A|------------------------------------------|
E|------------------------------------------|

   D9
O cd já rodou duas vezes
                                                Em 
O cantor nem conheço e nem sei o que ele tá cantando
                                         D9
Nessas horas o mundo se cala e o coração   gritando

[Pré-Refrão]]

Pera aí
Em
   Essa placa eu conheço

Tô a duas ruas do seu endereço
             D9
Depois da escola na terceira casa

Do lado esquerdo

[Refrão]

                   Em 
Coração tá no automático
                 G
Te esquecer não tá fácil
              D9
Minha vida é viver você

Eu te quero mesmo sem querer

           Em 
Tô no automático
                 G
Nosso amor é dramático
                D9
E o final nunca é diferente
                              Em 
Eu rodo, rodo e paro na sua frente
           G
Automaticamente
            D9
Automaticamente
 
                              Em 
Eu rodo, rodo e paro na sua frente
           G
Automaticamente
           D9
Automaticamente

[Primeira Parte]

   Em 
O carro de trás buzinando pra mim
     G
O sinal ficou verde e eu nem percebi
   D9
O cd já rodou duas vezes
                                                Em 
O cantor nem conheço e nem sei o que ele tá cantando
                                         D9
Nessas horas o mundo se cala e o coração   gritando

[Pré-Refrão]

Pera aí
Em
   Essa placa eu conheço

Tô a duas ruas do seu endereço
             D9
Depois da escola na terceira casa

Do lado esquerdo

[Refrão]

                   Em 
Coração tá no automático
                 G
Te esquecer não tá fácil
              D9
Minha vida é viver você

Eu te quero mesmo sem querer

           Em 
Tô no automático
                 G
Nosso amor é dramático
                D9
E o final nunca é diferente
                              Em 
Eu rodo, rodo e paro na sua frente
           G
Automaticamente
            D9
Automaticamente
 
                              Em 
Eu rodo, rodo e paro na sua frente
           G
Automaticamente
           D9
Automaticamente

[Riff 2]

E|------------------------------------------|
B|-7-8-7-8-7-8-7-5-3--3/5-3-0---------------|
G|------------------------------------------|
D|------------------------------------------|
A|------------------------------------------|
E|------------------------------------------|

           Em
Tô no automático

Clipes

Cifra Club Pro

Aproveite o Cifra Club com benefícios exclusivos e sem anúncios
Cifra Club Pro
Aproveite o Cifra Club com benefícios exclusivos e sem anúncios