busca

Problema

Maiara e Maraisa

Tom: Bbm (forma dos acordes no tom de Am) Capotraste na 1ª casa
[Intro] Am  C  G  D9

E|------------------------------------------|
B|-3/5-3------------------------------------|
G|-------5---5-----------5/7----------------|
D|---------7---7-5-5/7-5--------------------|
A|------------------------------------------|
E|------------------------------------------|

E|------------------------------------------|
B|------------------------------------------|
G|-5-5h7-5-5h7-5----------------------------|
D|---------------5/7~-----------------------|
A|------------------------------------------|
E|------------------------------------------|

[Primeira Parte]

 Am          
Lembra que eu falei que ia te esquecer?
G 
E você disse que era conversa
Dm7 
    Pois é
 F
Você tava certo

   Am
E disse que seu beijo era o mais gostoso
G                                  Dm7 
E que meu corpo não encaixaria com outro
F
Acertou de novo

[Pré-Refrão]

          Dm7 
E se meu coração é seu
F             G
O problema é meu

[Refrão]

    C
Eu sofro com problema
    G
Choro pelo problema
          Dm7 
E depois beijo o problema
         F       G
E vou vivendo esse dilema

    C
Eu sofro com problema
    G
Choro pelo problema
          Dm7 
E depois beijo o problema
         F       G
E vou vivendo esse dilema

    C
Eu sofro com problema
    G
Choro pelo problema
          Dm7 
E depois beijo o problema
         F       G
E vou vivendo esse dilema

( C  G  Dm7  F  G )

[Primeira Parte]

 Am          
Lembra que eu falei que ia te esquecer?
G 
E você disse que era conversa
Dm7 
    Pois é
 F
Você tava certo

   Am
E disse que seu beijo era o mais gostoso
G                                  Dm7 
E que meu corpo não encaixaria com outro
F
Acertou de novo

[Pré-Refrão]

          Dm7 
E se meu coração é seu
F             G
O problema é meu

[Refrão]

    C
Eu sofro com problema
    G
Choro pelo problema
          Dm7 
E depois beijo o problema
         F       G
E vou vivendo esse dilema

    C
Eu sofro com problema
    G
Choro pelo problema
          Dm7 
E depois beijo o problema
         F       G
E vou vivendo esse dilema

    C
Eu sofro com problema
    G
Choro pelo problema
          Dm7 
E depois beijo o problema
         F       G
E vou vivendo esse dilema

[Final] C  G  Dm 
        F  G  Am

Clipes

Cifra Club Pro

Aproveite o Cifra Club com benefícios exclusivos e sem anúncios
Cifra Club Pro
Aproveite o Cifra Club com benefícios exclusivos e sem anúncios