busca

Cabeça de Bagre II

Mamonas Assassinas

     Depois do final da terceira vez que a guitarra
      entra com a distorçao.

G -----------------------------------------
D -----------------------------------------
A ------------------7-7-7-7----------------
E ----8---9---10-------------7--6----------

    
    Loucura, insensatez, estado inevitável...
G ------------------------------------------
D ------------------------------------------    (parte 1)
A -------------------------7-7-7-7----------
E ----0-0-12-0-0-12-0-0-------------7--6----

    Quando eu repeti a 5ª série Ê....
G ------------------------------------------
D ------------------------------------------  (parte 2)
A ------------------------------------------
E ----5--4-5--4-5--4-5------4---------------

    voltando a parte 1    faz essa passagem:
G ------------------------------------------
D ------------------------------------------
A ------------------------------------------
E --------6-----5---------------------------

     Essa é a hora do solinho.
G --------------------------------------------
D --------------------------------------------
A ---------7-7-------7-7-------7-7-------7-7--
E ----5-5-------5-5-------5-5-------5-5-------



G --------------------------------------------
D --------------------------------------------
A --------------------------------------------
E ----0--------------------0------------------


G --------------------------------------------
D --------------------------------------------
A --------------------------------------------
E ----2-2222222222---3-333333---11111111---2--

   VOUTAR A 2ª PARTE E PULA PARA:

G --------------------------------------------
D --------------------------------------------
A --------------------------------------------
E ----6-6--5--5--6-6--5--5--6-6---5-----------

 POR: JULIANO DOS SANTOS(QUEVEDO) PAPAGAIO- MG
        É O COUVER DO MARIA DOIDA .......

Clipes